  0
SECTION
  2
HEADER
  9
$ACADVER
  1
AC1015
  9
$ACADMAINTVER
 70
     6
  9
$DWGCODEPAGE
  3
ANSI_1252
  9
$INSBASE
 10
0.0
 20
0.0
 30
0.0
  9
$EXTMIN
 10
4.0266933175
 20
1.3898652054
 30
0.0
  9
$EXTMAX
 10
17.8903165102
 20
10.9644065204
 30
0.0
  9
$LIMMIN
 10
0.0
 20
0.0
  9
$LIMMAX
 10
12.0
 20
9.0
  9
$ORTHOMODE
 70
     0
  9
$REGENMODE
 70
     1
  9
$FILLMODE
 70
     1
  9
$QTEXTMODE
 70
     0
  9
$MIRRTEXT
 70
     1
  9
$LTSCALE
 40
1.0
  9
$ATTMODE
 70
     1
  9
$TEXTSIZE
 40
0.125
  9
$TRACEWID
 40
0.05
  9
$TEXTSTYLE
  7
Standard
  9
$CLAYER
  8
0
  9
$CELTYPE
  6
ByLayer
  9
$CECOLOR
 62
   256
  9
$CELTSCALE
 40
1.0
  9
$DISPSILH
 70
     0
  9
$DIMSCALE
 40
1.0
  9
$DIMASZ
 40
0.13
  9
$DIMEXO
 40
0.05
  9
$DIMDLI
 40
0.38
  9
$DIMRND
 40
0.0
  9
$DIMDLE
 40
0.0
  9
$DIMEXE
 40
0.125
  9
$DIMTP
 40
0.0
  9
$DIMTM
 40
0.0
  9
$DIMTXT
 40
0.125
  9
$DIMCEN
 40
0.09
  9
$DIMTSZ
 40
0.0
  9
$DIMTOL
 70
     0
  9
$DIMLIM
 70
     0
  9
$DIMTIH
 70
     1
  9
$DIMTOH
 70
     1
  9
$DIMSE1
 70
     0
  9
$DIMSE2
 70
     0
  9
$DIMTAD
 70
     0
  9
$DIMZIN
 70
     0
  9
$DIMBLK
  1

  9
$DIMASO
 70
     1
  9
$DIMSHO
 70
     1
  9
$DIMPOST
  1

  9
$DIMAPOST
  1

  9
$DIMALT
 70
     0
  9
$DIMALTD
 70
     2
  9
$DIMALTF
 40
25.4
  9
$DIMLFAC
 40
1.0
  9
$DIMTOFL
 70
     0
  9
$DIMTVP
 40
0.0
  9
$DIMTIX
 70
     0
  9
$DIMSOXD
 70
     0
  9
$DIMSAH
 70
     0
  9
$DIMBLK1
  1

  9
$DIMBLK2
  1

  9
$DIMSTYLE
  2
Standard
  9
$DIMCLRD
 70
     0
  9
$DIMCLRE
 70
     0
  9
$DIMCLRT
 70
     0
  9
$DIMTFAC
 40
1.0
  9
$DIMGAP
 40
0.06
  9
$DIMJUST
 70
     0
  9
$DIMSD1
 70
     0
  9
$DIMSD2
 70
     0
  9
$DIMTOLJ
 70
     1
  9
$DIMTZIN
 70
     0
  9
$DIMALTZ
 70
     0
  9
$DIMALTTZ
 70
     0
  9
$DIMUPT
 70
     0
  9
$DIMDEC
 70
     4
  9
$DIMTDEC
 70
     4
  9
$DIMALTU
 70
     2
  9
$DIMALTTD
 70
     2
  9
$DIMTXSTY
  7
Standard
  9
$DIMAUNIT
 70
     0
  9
$DIMADEC
 70
     4
  9
$DIMALTRND
 40
0.0
  9
$DIMAZIN
 70
     0
  9
$DIMDSEP
 70
    46
  9
$DIMATFIT
 70
     3
  9
$DIMFRAC
 70
     0
  9
$DIMLDRBLK
  1

  9
$DIMLUNIT
 70
     2
  9
$DIMLWD
 70
    -2
  9
$DIMLWE
 70
    -2
  9
$DIMTMOVE
 70
     0
  9
$LUNITS
 70
     2
  9
$LUPREC
 70
     4
  9
$SKETCHINC
 40
0.1
  9
$FILLETRAD
 40
0.5
  9
$AUNITS
 70
     0
  9
$AUPREC
 70
     2
  9
$MENU
  1
.
  9
$ELEVATION
 40
0.0
  9
$PELEVATION
 40
0.0
  9
$THICKNESS
 40
0.0
  9
$LIMCHECK
 70
     0
  9
$CHAMFERA
 40
0.5
  9
$CHAMFERB
 40
0.5
  9
$CHAMFERC
 40
1.0
  9
$CHAMFERD
 40
0.0
  9
$SKPOLY
 70
     0
  9
$TDCREATE
 40
2456055.618535255
  9
$TDUCREATE
 40
2456055.785201921
  9
$TDUPDATE
 40
2456055.618562014
  9
$TDUUPDATE
 40
2456055.78522868
  9
$TDINDWG
 40
0.0000000116
  9
$TDUSRTIMER
 40
0.0000000116
  9
$USRTIMER
 70
     1
  9
$ANGBASE
 50
0.0
  9
$ANGDIR
 70
     0
  9
$PDMODE
 70
     0
  9
$PDSIZE
 40
-1.0
  9
$PLINEWID
 40
0.0
  9
$SPLFRAME
 70
     0
  9
$SPLINETYPE
 70
     6
  9
$SPLINESEGS
 70
     8
  9
$HANDSEED
  5
5C
  9
$SURFTAB1
 70
     6
  9
$SURFTAB2
 70
     6
  9
$SURFTYPE
 70
     6
  9
$SURFU
 70
     6
  9
$SURFV
 70
     6
  9
$UCSBASE
  2

  9
$UCSNAME
  2

  9
$UCSORG
 10
0.0
 20
0.0
 30
0.0
  9
$UCSXDIR
 10
1.0
 20
0.0
 30
0.0
  9
$UCSYDIR
 10
0.0
 20
1.0
 30
0.0
  9
$UCSORTHOREF
  2

  9
$UCSORTHOVIEW
 70
     0
  9
$UCSORGTOP
 10
0.0
 20
0.0
 30
0.0
  9
$UCSORGBOTTOM
 10
0.0
 20
0.0
 30
0.0
  9
$UCSORGLEFT
 10
0.0
 20
0.0
 30
0.0
  9
$UCSORGRIGHT
 10
0.0
 20
0.0
 30
0.0
  9
$UCSORGFRONT
 10
0.0
 20
0.0
 30
0.0
  9
$UCSORGBACK
 10
0.0
 20
0.0
 30
0.0
  9
$PUCSBASE
  2

  9
$PUCSNAME
  2

  9
$PUCSORG
 10
0.0
 20
0.0
 30
0.0
  9
$PUCSXDIR
 10
1.0
 20
0.0
 30
0.0
  9
$PUCSYDIR
 10
0.0
 20
1.0
 30
0.0
  9
$PUCSORTHOREF
  2

  9
$PUCSORTHOVIEW
 70
     0
  9
$PUCSORGTOP
 10
0.0
 20
0.0
 30
0.0
  9
$PUCSORGBOTTOM
 10
0.0
 20
0.0
 30
0.0
  9
$PUCSORGLEFT
 10
0.0
 20
0.0
 30
0.0
  9
$PUCSORGRIGHT
 10
0.0
 20
0.0
 30
0.0
  9
$PUCSORGFRONT
 10
0.0
 20
0.0
 30
0.0
  9
$PUCSORGBACK
 10
0.0
 20
0.0
 30
0.0
  9
$USERI1
 70
     0
  9
$USERI2
 70
     0
  9
$USERI3
 70
     0
  9
$USERI4
 70
     0
  9
$USERI5
 70
     0
  9
$USERR1
 40
0.0
  9
$USERR2
 40
0.0
  9
$USERR3
 40
0.0
  9
$USERR4
 40
0.0
  9
$USERR5
 40
0.0
  9
$WORLDVIEW
 70
     1
  9
$SHADEDGE
 70
     3
  9
$SHADEDIF
 70
    70
  9
$TILEMODE
 70
     1
  9
$MAXACTVP
 70
    64
  9
$PINSBASE
 10
0.0
 20
0.0
 30
0.0
  9
$PLIMCHECK
 70
     0
  9
$PEXTMIN
 10
1.0000000000E+20
 20
1.0000000000E+20
 30
1.0000000000E+20
  9
$PEXTMAX
 10
-1.0000000000E+20
 20
-1.0000000000E+20
 30
-1.0000000000E+20
  9
$PLIMMIN
 10
0.0
 20
0.0
  9
$PLIMMAX
 10
12.0
 20
9.0
  9
$UNITMODE
 70
     0
  9
$VISRETAIN
 70
     1
  9
$PLINEGEN
 70
     0
  9
$PSLTSCALE
 70
     1
  9
$TREEDEPTH
 70
  3020
  9
$CMLSTYLE
  2
Standard
  9
$CMLJUST
 70
     0
  9
$CMLSCALE
 40
1.0
  9
$PROXYGRAPHICS
 70
     1
  9
$MEASUREMENT
 70
     0
  9
$CELWEIGHT
370
    -1
  9
$ENDCAPS
280
     0
  9
$JOINSTYLE
280
     0
  9
$LWDISPLAY
290
     1
  9
$INSUNITS
 70
     1
  9
$HYPERLINKBASE
  1

  9
$STYLESHEET
  1

  9
$XEDIT
290
     1
  9
$CEPSNTYPE
380
     0
  9
$PSTYLEMODE
290
     1
  9
$FINGERPRINTGUID
  2
{18E122A9-4A33-4BC2-90F1-57C334456CDD}
  9
$VERSIONGUID
  2
{FAEB1C32-E019-11D5-929B-00C0DF256EC4}
  9
$EXTNAMES
290
     1
  9
$PSVPSCALE
 40
0.0
  9
$OLESTARTUP
290
     0
  0
ENDSEC
  0
SECTION
  2
CLASSES
  0
CLASS
  1
ACDBDICTIONARYWDFLT
  2
AcDbDictionaryWithDefault
  3
ObjectDBX Classes
 90
        0
280
     0
281
     0
  0
CLASS
  1
VISUALSTYLE
  2
AcDbVisualStyle
  3
ObjectDBX Classes
 90
     4095
280
     0
281
     0
  0
CLASS
  1
MATERIAL
  2
AcDbMaterial
  3
ObjectDBX Classes
 90
     1153
280
     0
281
     0
  0
CLASS
  1
ACDBPLACEHOLDER
  2
AcDbPlaceHolder
  3
ObjectDBX Classes
 90
        0
280
     0
281
     0
  0
CLASS
  1
LAYOUT
  2
AcDbLayout
  3
ObjectDBX Classes
 90
        0
280
     0
281
     0
  0
ENDSEC
  0
SECTION
  2
TABLES
  0
TABLE
  2
VPORT
  5
8
330
0
100
AcDbSymbolTable
 70
     1
  0
VPORT
  5
29
330
8
100
AcDbSymbolTableRecord
100
AcDbViewportTableRecord
  2
*Active
 70
     0
 10
0.0
 20
0.0
 11
1.0
 21
1.0
 12
10.9585049139
 22
6.1771358629
 13
0.0
 23
0.0
 14
0.5
 24
0.5
 15
0.5
 25
0.5
 16
0.0
 26
0.0
 36
1.0
 17
0.0
 27
0.0
 37
0.0
 40
9.7660321413
 41
1.4479673476
 42
50.0
 43
0.0
 44
0.0
 50
0.0
 51
0.0
 71
     0
 72
   100
 73
     1
 74
     3
 75
     0
 76
     0
 77
     0
 78
     0
281
     0
 65
     1
110
0.0
120
0.0
130
0.0
111
1.0
121
0.0
131
0.0
112
0.0
122
1.0
132
0.0
 79
     0
146
0.0
  0
ENDTAB
  0
TABLE
  2
LTYPE
  5
5
330
0
100
AcDbSymbolTable
 70
     6
  0
LTYPE
  5
14
330
5
100
AcDbSymbolTableRecord
100
AcDbLinetypeTableRecord
  2
ByBlock
 70
     0
  3

 72
    65
 73
     0
 40
0.0
  0
LTYPE
  5
15
330
5
100
AcDbSymbolTableRecord
100
AcDbLinetypeTableRecord
  2
ByLayer
 70
     0
  3

 72
    65
 73
     0
 40
0.0
  0
LTYPE
  5
16
330
5
100
AcDbSymbolTableRecord
100
AcDbLinetypeTableRecord
  2
Continuous
 70
     0
  3
Solid line
 72
    65
 73
     0
 40
0.0
  0
LTYPE
  5
3F
330
5
100
AcDbSymbolTableRecord
100
AcDbLinetypeTableRecord
  2
HIDDEN
 70
     0
  3
Hidden __ __ __ __ __ __ __ __ __ __ __ __ __ __
 72
    65
 73
     2
 40
0.075
 49
0.05
 74
     0
 49
-0.025
 74
     0
  0
LTYPE
  5
40
330
5
100
AcDbSymbolTableRecord
100
AcDbLinetypeTableRecord
  2
PHANTOM
 70
     0
  3
Phantom ______  __  __  ______  __  __  ______
 72
    65
 73
     6
 40
0.5
 49
0.25
 74
     0
 49
-0.05
 74
     0
 49
0.05
 74
     0
 49
-0.05
 74
     0
 49
0.05
 74
     0
 49
-0.05
 74
     0
  0
LTYPE
  5
41
330
5
100
AcDbSymbolTableRecord
100
AcDbLinetypeTableRecord
  2
CENTER
 70
     0
  3
Center ____ _ ____ _ ____ _ ____ _ ____ _ ____
 72
    65
 73
     4
 40
0.4
 49
0.25
 74
     0
 49
-0.05
 74
     0
 49
0.05
 74
     0
 49
-0.05
 74
     0
  0
LTYPE
  5
42
330
5
100
AcDbSymbolTableRecord
100
AcDbLinetypeTableRecord
  2
CENTERX2
 70
     0
  3
Center (2x) ________  __  ________  __  _____
 72
    65
 73
     4
 40
0.8
 49
0.5
 74
     0
 49
-0.1
 74
     0
 49
0.1
 74
     0
 49
-0.1
 74
     0
  0
LTYPE
  5
43
330
5
100
AcDbSymbolTableRecord
100
AcDbLinetypeTableRecord
  2
DOT2
 70
     0
  3
Dot (.5x) ........................................
 72
    65
 73
     2
 40
0.025
 49
0.0
 74
     0
 49
-0.025
 74
     0
  0
ENDTAB
  0
TABLE
  2
LAYER
  5
2
330
0
100
AcDbSymbolTable
 70
     1
  0
LAYER
  5
10
330
2
100
AcDbSymbolTableRecord
100
AcDbLayerTableRecord
  2
0
 70
     0
 62
     7
  6
Continuous
370
    -3
390
F
  0
ENDTAB
  0
TABLE
  2
STYLE
  5
3
330
0
100
AcDbSymbolTable
 70
     1
  0
STYLE
  5
11
330
3
100
AcDbSymbolTableRecord
100
AcDbTextStyleTableRecord
  2
Standard
 70
     0
 40
0.0
 41
1.0
 50
0.0
 71
     0
 42
0.125
  3
txt
  4

  0
ENDTAB
  0
TABLE
  2
VIEW
  5
6
330
0
100
AcDbSymbolTable
 70
     0
  0
ENDTAB
  0
TABLE
  2
UCS
  5
7
330
0
100
AcDbSymbolTable
 70
     0
  0
ENDTAB
  0
TABLE
  2
APPID
  5
9
330
0
100
AcDbSymbolTable
 70
     1
  0
APPID
  5
12
330
9
100
AcDbSymbolTableRecord
100
AcDbRegAppTableRecord
  2
ACAD
 70
     0
  0
ENDTAB
  0
TABLE
  2
DIMSTYLE
  5
A
330
0
100
AcDbSymbolTable
 70
     1
100
AcDbDimStyleTable
  0
DIMSTYLE
105
27
330
A
100
AcDbSymbolTableRecord
100
AcDbDimStyleTableRecord
  2
Standard
 70
     0
178
     0
340
11
  0
ENDTAB
  0
TABLE
  2
BLOCK_RECORD
  5
1
330
0
100
AcDbSymbolTable
 70
     1
  0
BLOCK_RECORD
  5
1F
330
1
100
AcDbSymbolTableRecord
100
AcDbBlockTableRecord
  2
*Model_Space
340
22
  0
BLOCK_RECORD
  5
1B
330
1
100
AcDbSymbolTableRecord
100
AcDbBlockTableRecord
  2
*Paper_Space
340
1E
  0
BLOCK_RECORD
  5
23
330
1
100
AcDbSymbolTableRecord
100
AcDbBlockTableRecord
  2
*Paper_Space0
340
26
  0
ENDTAB
  0
ENDSEC
  0
SECTION
  2
BLOCKS
  0
BLOCK
  5
20
330
1F
100
AcDbEntity
  8
0
100
AcDbBlockBegin
  2
*Model_Space
 70
     0
 10
0.0
 20
0.0
 30
0.0
  3
*Model_Space
  1

  0
ENDBLK
  5
21
330
1F
100
AcDbEntity
  8
0
100
AcDbBlockEnd
  0
BLOCK
  5
1C
330
1B
100
AcDbEntity
 67
     1
  8
0
100
AcDbBlockBegin
  2
*Paper_Space
 70
     0
 10
0.0
 20
0.0
 30
0.0
  3
*Paper_Space
  1

  0
ENDBLK
  5
1D
330
1B
100
AcDbEntity
 67
     1
  8
0
100
AcDbBlockEnd
  0
BLOCK
  5
24
330
23
100
AcDbEntity
  8
0
100
AcDbBlockBegin
  2
*Paper_Space0
 70
     0
 10
0.0
 20
0.0
 30
0.0
  3
*Paper_Space0
  1

  0
ENDBLK
  5
25
330
23
100
AcDbEntity
  8
0
100
AcDbBlockEnd
  0
ENDSEC
  0
SECTION
  2
ENTITIES
  0
CIRCLE
  5
44
330
1F
100
AcDbEntity
  8
0
  6
Continuous
 62
     7
370
    15
100
AcDbCircle
 10
4.2117861317
 20
1.5749586727
 30
0.0
 40
0.0847500000000003
  0
CIRCLE
  5
45
330
1F
100
AcDbEntity
  8
0
  6
Continuous
 62
     7
370
    15
100
AcDbCircle
 10
17.7252853755
 20
6.0749586727
 30
0.0
 40
0.0847500000000032
  0
CIRCLE
  5
46
330
1F
100
AcDbEntity
  8
0
  6
Continuous
 62
     7
370
    15
100
AcDbCircle
 10
8.6851824939
 20
1.5548658598
 30
0.0
 40
0.0847499999999979
  0
CIRCLE
  5
47
330
1F
100
AcDbEntity
  8
0
  6
Continuous
 62
     7
370
    15
100
AcDbCircle
 10
13.1585788561
 20
10.0777552398
 30
0.0
 40
0.0847499999999961
  0
CIRCLE
  5
48
330
1F
100
AcDbEntity
  8
0
  6
Continuous
 62
     7
370
    15
100
AcDbCircle
 10
4.5014077909
 20
10.5503918552
 30
0.0
 40
0.0847499999999979
  0
SPLINE
  5
4A
330
1F
100
AcDbEntity
  8
0
  6
Continuous
 62
     7
370
    15
100
AcDbSpline
210
0.0
220
0.0
230
1.0
 70
     8
 71
     3
 72
    40
 73
    36
 74
     0
 42
0.00000001
 43
0.00000001
 12
1.0
 22
0.0
 32
0.0
 13
1.0
 23
0.0
 33
0.0
 40
0.0
 40
0.0
 40
0.0
 40
0.0
 40
0.1249999999999993
 40
0.1249999999999993
 40
0.2499999999999988
 40
0.2499999999999988
 40
0.3749999999999981
 40
0.3749999999999981
 40
0.4374999999999983
 40
0.4374999999999983
 40
0.4999999999999987
 40
0.4999999999999987
 40
0.5624999999999989
 40
0.5624999999999989
 40
0.6249999999999993
 40
0.6249999999999993
 40
0.6562500000000002
 40
0.6562500000000002
 40
0.6875000000000013
 40
0.6875000000000013
 40
0.7500000000000034
 40
0.7500000000000034
 40
0.7656250000000038
 40
0.7656250000000038
 40
0.781250000000004
 40
0.781250000000004
 40
0.8125000000000026
 40
0.8125000000000026
 40
0.8750000000000001
 40
0.8750000000000001
 40
0.90625
 40
0.90625
 40
0.9375
 40
0.9375
 40
1.0
 40
1.0
 40
1.0
 40
1.0
 10
6.009855770309918
 20
10.96278994114744
 30
0.0
 10
5.907325412461831
 20
10.9655495110039
 30
0.0
 10
5.804956029121997
 20
10.96627104651713
 30
0.0
 10
5.600625783521594
 20
10.96254199433887
 30
0.0
 10
5.498663942525835
 20
10.95810379802515
 30
0.0
 10
5.295281229382393
 20
10.94237841357292
 30
0.0
 10
5.193857990020173
 20
10.93112119579785
 30
0.0
 10
5.042297491950833
 20
10.90696361286082
 30
0.0
 10
4.991873937282489
 20
10.89768792720646
 30
0.0
 10
4.891266490355662
 20
10.87610228527066
 30
0.0
 10
4.841028349529186
 20
10.86376745067082
 30
0.0
 10
4.742179630119209
 20
10.8356389870429
 30
0.0
 10
4.693423205628055
 20
10.81982279079966
 30
0.0
 10
4.597582599832394
 20
10.78380417863285
 30
0.0
 10
4.55049516069263
 20
10.76361030786659
 30
0.0
 10
4.481493539763011
 20
10.72904529642359
 30
0.0
 10
4.458766163641053
 20
10.71680712839811
 30
0.0
 10
4.413947885096652
 20
10.69066135007397
 30
0.0
 10
4.392063399592983
 20
10.67687060266611
 30
0.0
 10
4.328336398187569
 20
10.63323219566132
 30
0.0
 10
4.288328862045183
 20
10.60109129805383
 30
0.0
 10
4.242177486349447
 20
10.55616704864503
 30
0.0
 10
4.233141238453843
 20
10.54694340782255
 30
0.0
 10
4.215480869183871
 20
10.52798891864366
 30
0.0
 10
4.206830449262865
 20
10.51822584310333
 30
0.0
 10
4.181763902971715
 20
10.48840206502196
 30
0.0
 10
4.166242691222844
 20
10.46783520501619
 30
0.0
 10
4.123288803715002
 20
10.40405842754926
 30
0.0
 10
4.099466390538431
 20
10.35877201651893
 30
0.0
 10
4.071107093264732
 20
10.28660095412829
 30
0.0
 10
4.062874136196247
 20
10.26174236827174
 30
0.0
 10
4.049179517090626
 20
10.21190173350225
 30
0.0
 10
4.043649971986948
 20
10.18677689290447
 30
0.0
 10
4.03062994731645
 20
10.11084850602945
 30
0.0
 10
4.026693317546069
 20
10.05949338562264
 30
0.0
 10
4.026693317542398
 20
10.00752728184249
 30
0.0
  0
SPLINE
  5
4E
330
1F
100
AcDbEntity
  8
0
  6
Continuous
 62
     7
370
    15
100
AcDbSpline
210
0.0
220
0.0
230
1.0
 70
     8
 71
     3
 72
    18
 73
    14
 74
     0
 42
0.00000001
 43
0.00000001
 12
1.0
 22
0.0
 32
0.0
 13
1.0
 23
0.0
 33
0.0
 40
0.0
 40
0.0
 40
0.0
 40
0.0
 40
0.2500000000000005
 40
0.2500000000000005
 40
0.500000000000001
 40
0.500000000000001
 40
0.7500000000000016
 40
0.7500000000000016
 40
0.8750000000000008
 40
0.8750000000000008
 40
0.9375000000000004
 40
0.9375000000000004
 40
1.0
 40
1.0
 40
1.0
 40
1.0
 10
9.97860693136516
 20
10.75535303544044
 30
0.0
 10
10.31858329992412
 20
10.72894111092941
 30
0.0
 10
10.65765020184984
 20
10.69376360329571
 30
0.0
 10
11.3339815298905
 20
10.60603604134147
 30
0.0
 10
11.67080638396788
 20
10.55354283037822
 30
0.0
 10
12.34176901678095
 20
10.43137679771846
 30
0.0
 10
12.6752803626014
 20
10.36184226283905
 30
0.0
 10
13.17257071919289
 20
10.24493973234736
 30
0.0
 10
13.33784015290177
 20
10.20387164609784
 30
0.0
 10
13.58500518380435
 20
10.13912676575252
 30
0.0
 10
13.66727034488498
 20
10.11702136439082
 30
0.0
 10
13.83155458420539
 20
10.07176421270912
 30
0.0
 10
13.91354219271067
 20
10.04847865247458
 30
0.0
 10
13.99548091995832
 20
10.02498524819522
 30
0.0
  0
SPLINE
  5
4F
330
1F
100
AcDbEntity
  8
0
  6
Continuous
 62
     7
370
    15
100
AcDbSpline
210
0.0
220
0.0
230
1.0
 70
     8
 71
     3
 72
    80
 73
    76
 74
     0
 42
0.00000001
 43
0.00000001
 12
1.0
 22
0.0
 32
0.0
 13
1.0
 23
0.0
 33
0.0
 40
0.0
 40
0.0
 40
0.0
 40
0.0
 40
0.1250000000000183
 40
0.1875000000000275
 40
0.2187500000000321
 40
0.2187500000000321
 40
0.2343750000000341
 40
0.2343750000000341
 40
0.2382812500000347
 40
0.2382812500000347
 40
0.2402343750000349
 40
0.2402343750000349
 40
0.242187500000035
 40
0.242187500000035
 40
0.2460937500000349
 40
0.2460937500000349
 40
0.2500000000000346
 40
0.2500000000000346
 40
0.2578125000000343
 40
0.2578125000000343
 40
0.2656250000000339
 40
0.2656250000000339
 40
0.2695312500000336
 40
0.2695312500000336
 40
0.2734375000000335
 40
0.2734375000000335
 40
0.2773437500000333
 40
0.2773437500000333
 40
0.2812500000000331
 40
0.2812500000000331
 40
0.2890625000000329
 40
0.2890625000000329
 40
0.2929687500000326
 40
0.2929687500000326
 40
0.2968750000000324
 40
0.2968750000000324
 40
0.3125000000000319
 40
0.375000000000029
 40
0.5000000000000233
 40
0.5625000000000207
 40
0.5937500000000193
 40
0.5937500000000193
 40
0.6015625000000189
 40
0.6015625000000189
 40
0.6093750000000185
 40
0.6093750000000185
 40
0.6250000000000178
 40
0.6250000000000178
 40
0.6562500000000164
 40
0.6562500000000164
 40
0.6718750000000158
 40
0.6718750000000158
 40
0.6796875000000153
 40
0.6796875000000153
 40
0.6875000000000151
 40
0.6875000000000151
 40
0.7187500000000138
 40
0.7187500000000138
 40
0.7500000000000124
 40
0.7500000000000124
 40
0.7656250000000115
 40
0.7656250000000115
 40
0.7812500000000108
 40
0.7812500000000108
 40
0.8125000000000093
 40
0.8125000000000093
 40
0.8281250000000085
 40
0.8281250000000085
 40
0.8437500000000078
 40
0.8437500000000078
 40
0.8750000000000062
 40
0.8750000000000062
 40
0.9375000000000031
 40
0.9375000000000031
 40
1.0
 40
1.0
 40
1.0
 40
1.0
 10
13.99999999999999
 20
1.389865859787716
 30
0.0
 10
14.59480906138249
 20
1.389865859787716
 30
0.0
 10
15.48702265345622
 20
1.389865859787732
 30
0.0
 10
16.52793851087559
 20
1.389865859787737
 30
0.0
 10
16.97404530691245
 20
1.389865859787724
 30
0.0
 10
17.19709870493089
 20
1.38986585978772
 30
0.0
 10
17.27144985378108
 20
1.389864985063145
 30
0.0
 10
17.36438876452789
 20
1.389865260511051
 30
0.0
 10
17.38297654466799
 20
1.389865424243254
 30
0.0
 10
17.41085821005601
 20
1.389865930577913
 30
0.0
 10
17.42015026495312
 20
1.389965241778897
 30
0.0
 10
17.43872172319831
 20
1.39084794401434
 30
0.0
 10
17.4480024707746
 20
1.391558651504767
 30
0.0
 10
17.47582973588198
 20
1.394500626493643
 30
0.0
 10
17.49436134958532
 20
1.397537756417248
 30
0.0
 10
17.53138294495371
 20
1.405863095381092
 30
0.0
 10
17.54959502428714
 20
1.411097464389867
 30
0.0
 10
17.60275329085587
 20
1.429772059220787
 30
0.0
 10
17.63649926112533
 20
1.446256392918262
 30
0.0
 10
17.7004077653328
 20
1.487486575329184
 30
0.0
 10
17.72937119175348
 20
1.511385933660525
 30
0.0
 10
17.76846696529314
 20
1.552011070330816
 30
0.0
 10
17.78081423577857
 20
1.566427222444039
 30
0.0
 10
17.80370998950131
 20
1.596683791521875
 30
0.0
 10
17.81416692029288
 20
1.612339045487211
 30
0.0
 10
17.83317645668813
 20
1.644662243394228
 30
0.0
 10
17.84172723210461
 20
1.661331160600461
 30
0.0
 10
17.8568785398502
 20
1.695706103401024
 30
0.0
 10
17.86349602178481
 20
1.713498067129273
 30
0.0
 10
17.88015389221958
 20
1.76792947671923
 30
0.0
 10
17.88687143038674
 20
1.804842237150125
 30
0.0
 10
17.89052386516358
 20
1.861126641321658
 30
0.0
 10
17.89032362768087
 20
1.880087436238711
 30
0.0
 10
17.89030939263863
 20
1.917965154965165
 30
0.0
 10
17.89031631781147
 20
1.936904014505472
 30
0.0
 10
17.89031631781155
 20
2.031598311770383
 30
0.0
 10
17.89031631780979
 20
2.410375500830026
 30
0.0
 10
17.89031631778315
 20
3.395196192385083
 30
0.0
 10
17.8903163178142
 20
4.607283197375983
 30
0.0
 10
17.89031631781014
 20
5.667859326742998
 30
0.0
 10
17.89031631781124
 20
6.122391953614575
 30
0.0
 10
17.89031631781076
 20
6.311780548144398
 30
0.0
 10
17.89042546201579
 20
6.349658350760829
 30
0.0
 10
17.89004355554187
 20
6.425413495661493
 30
0.0
 10
17.88923664709253
 20
6.463290595691916
 30
0.0
 10
17.88444906845449
 20
6.576920080474883
 30
0.0
 10
17.8783976825423
 20
6.652061878761284
 30
0.0
 10
17.85150323913275
 20
6.875429187067056
 30
0.0
 10
17.82199323807026
 20
7.021696089433638
 30
0.0
 10
17.75968801822264
 20
7.236976556400644
 30
0.0
 10
17.73592016472811
 20
7.308051721399466
 30
0.0
 10
17.69570082850445
 20
7.413621365519385
 30
0.0
 10
17.68153220743924
 20
7.448637187065909
 30
0.0
 10
17.65164736396828
 20
7.51831540084293
 30
0.0
 10
17.63598930933733
 20
7.552831270155886
 30
0.0
 10
17.55459425382027
 20
7.723031091199449
 30
0.0
 10
17.47925280346241
 20
7.852452271682523
 30
0.0
 10
17.31045176621127
 20
8.099354543533803
 30
0.0
 10
17.21699310646374
 20
8.216836245903183
 30
0.0
 10
17.06462287658773
 20
8.38503054368296
 30
0.0
 10
17.01215484208068
 20
8.439358339847113
 30
0.0
 10
16.90456631548356
 20
8.544459094828575
 30
0.0
 10
16.84938084238239
 20
8.595303374343414
 30
0.0
 10
16.68003426570986
 20
8.74318818654175
 30
0.0
 10
16.5621004767483
 20
8.835602119487524
 30
0.0
 10
16.37886186298557
 20
8.966450553480268
 30
0.0
 10
16.31672034908302
 20
9.008764353185963
 30
0.0
 10
16.19047039714545
 20
9.090979832387424
 30
0.0
 10
16.12629628403057
 20
9.130914784432322
 30
0.0
 10
15.93242662688581
 20
9.246551879417405
 30
0.0
 10
15.80095745902694
 20
9.318398389924424
 30
0.0
 10
15.40107925209455
 20
9.521028922454523
 30
0.0
 10
15.12718940040824
 20
9.638880091078818
 30
0.0
 10
14.56879867486841
 20
9.849544025485473
 30
0.0
 10
14.2842294506692
 20
9.942195507702271
 30
0.0
 10
13.99548091995832
 20
10.02498524819522
 30
0.0
  0
SPLINE
  5
51
330
1F
100
AcDbEntity
  8
0
  6
Continuous
 62
     7
370
    15
100
AcDbSpline
210
0.0
220
0.0
230
1.0
 70
     8
 71
     3
 72
    26
 73
    22
 74
     0
 42
0.00000001
 43
0.00000001
 12
1.0
 22
0.0
 32
0.0
 13
1.0
 23
0.0
 33
0.0
 40
0.0
 40
0.0
 40
0.0
 40
0.0
 40
0.1250000000000038
 40
0.1250000000000038
 40
0.2500000000000074
 40
0.2500000000000074
 40
0.3125000000000093
 40
0.3125000000000093
 40
0.3750000000000111
 40
0.3750000000000111
 40
0.5000000000000104
 40
0.5000000000000104
 40
0.6250000000000098
 40
0.6250000000000098
 40
0.7500000000000091
 40
0.7500000000000091
 40
0.8125000000000067
 40
0.8125000000000067
 40
0.8750000000000043
 40
0.8750000000000043
 40
1.0
 40
1.0
 40
1.0
 40
1.0
 10
4.026693317542397
 20
1.623469454593704
 30
0.0
 10
4.026693317542648
 20
1.608041606698689
 30
0.0
 10
4.028208825217634
 20
1.592779357885523
 30
0.0
 10
4.034238120764202
 20
1.562582481462274
 30
0.0
 10
4.038716761786835
 20
1.547907256861695
 30
0.0
 10
4.047461735142856
 20
1.526838604622646
 30
0.0
 10
4.050720705096971
 20
1.519955790842814
 30
0.0
 10
4.057939138290943
 20
1.506475408462411
 30
0.0
 10
4.061924238498503
 20
1.49984235427535
 30
0.0
 10
4.074744468147363
 20
1.480721177992729
 30
0.0
 10
4.084423173323298
 20
1.468977928146156
 30
0.0
 10
4.105966726726673
 20
1.447430959643723
 30
0.0
 10
4.117986637684061
 20
1.43756448360521
 30
0.0
 10
4.143385394272188
 20
1.420641882880848
 30
0.0
 10
4.156814987131019
 20
1.413495611215269
 30
0.0
 10
4.178008856158845
 20
1.404666190633958
 30
0.0
 10
4.185292680491011
 20
1.402038977153916
 30
0.0
 10
4.199949082820327
 20
1.397575778955565
 30
0.0
 10
4.207342266790653
 20
1.395726890687409
 30
0.0
 10
4.229713299793688
 20
1.391307937854106
 30
0.0
 10
4.244882676558482
 20
1.389865859942638
 30
0.0
 10
4.260296912498963
 20
1.389865859787717
 30
0.0
  0
CIRCLE
  5
52
330
1F
100
AcDbEntity
  8
0
  6
Continuous
 62
     7
370
    15
100
AcDbCircle
 10
16.1863708087
 20
8.8966642646
 30
0.0
 40
0.0847499999999943
  0
CIRCLE
  5
53
330
1F
100
AcDbEntity
  8
0
  6
Continuous
 62
     7
370
    15
100
AcDbCircle
 10
8.6851824939
 20
10.6797901415
 30
0.0
 40
0.0847499999999961
  0
CIRCLE
  5
54
330
1F
100
AcDbEntity
  8
0
  6
Continuous
 62
     7
370
    15
100
AcDbCircle
 10
13.1585788561
 20
1.5548658598
 30
0.0
 40
0.0847499999999972
  0
CIRCLE
  5
55
330
1F
100
AcDbEntity
  8
0
  6
Continuous
 62
     7
370
    15
100
AcDbCircle
 10
4.1916933175
 20
6.0749586727
 30
0.0
 40
0.0847499999999988
  0
CIRCLE
  5
56
330
1F
100
AcDbEntity
  8
0
  6
Continuous
 62
     7
370
    15
100
AcDbCircle
 10
17.6319752183
 20
1.6482092269
 30
0.0
 40
0.0847500000000021
  0
LINE
  5
57
330
1F
100
AcDbEntity
  8
0
  6
Continuous
 62
     7
370
    15
100
AcDbLine
 10
4.0266933175
 20
1.6234694546
 30
0.0
 11
4.0266933175
 21
10.0075272818
 31
0.0
  0
LINE
  5
58
330
1F
100
AcDbEntity
  8
0
  6
Continuous
 62
     7
370
    15
100
AcDbLine
 10
6.2598035708
 20
10.9556643651
 30
0.0
 11
6.0098557703
 21
10.9627899411
 31
0.0
  0
LINE
  5
59
330
1F
100
AcDbEntity
  8
0
  6
Continuous
 62
     7
370
    15
100
AcDbLine
 10
9.9785298707
 20
10.755359022
 30
0.0
 11
9.9786069314
 21
10.7553530354
 31
0.0
  0
LINE
  5
5A
330
1F
100
AcDbEntity
  8
0
  6
Continuous
 62
     7
370
    15
100
AcDbLine
 10
14.0
 20
1.3898658598
 30
0.0
 11
4.2602969125
 21
1.3898658598
 31
0.0
  0
ARC
  5
5B
330
1F
100
AcDbEntity
  8
0
  6
Continuous
 62
     7
370
    15
100
AcDbCircle
 10
3.8974612746
 20
-67.521664026
 30
0.0
 40
78.5128762212899
100
AcDbArc
 50
85.5578131017
 51
88.2757901492
  0
ENDSEC
  0
SECTION
  2
OBJECTS
  0
DICTIONARY
  5
C
330
0
100
AcDbDictionary
281
     1
  3
ACAD_GROUP
350
D
  3
ACAD_LAYOUT
350
1A
  3
ACAD_MLINESTYLE
350
17
  3
ACAD_PLOTSETTINGS
350
19
  3
ACAD_PLOTSTYLENAME
350
E
  0
DICTIONARY
  5
D
102
{ACAD_REACTORS
330
C
102
}
330
C
100
AcDbDictionary
281
     1
  0
DICTIONARY
  5
1A
102
{ACAD_REACTORS
330
C
102
}
330
C
100
AcDbDictionary
281
     1
  3
Layout1
350
1E
  3
Layout2
350
26
  3
Model
350
22
  0
DICTIONARY
  5
17
102
{ACAD_REACTORS
330
C
102
}
330
C
100
AcDbDictionary
281
     1
  3
Standard
350
18
  0
DICTIONARY
  5
19
102
{ACAD_REACTORS
330
C
102
}
330
C
100
AcDbDictionary
281
     1
  0
ACDBDICTIONARYWDFLT
  5
E
102
{ACAD_REACTORS
330
C
102
}
330
C
100
AcDbDictionary
281
     1
  3
Normal
350
F
100
AcDbDictionaryWithDefault
340
F
  0
LAYOUT
  5
1E
102
{ACAD_REACTORS
330
1A
102
}
330
1A
100
AcDbPlotSettings
  1

  2
none_device
  4

  6

 40
0.0
 41
0.0
 42
0.0
 43
0.0
 44
0.0
 45
0.0
 46
0.0
 47
0.0
 48
0.0
 49
0.0
140
0.0
141
0.0
142
1.0
143
1.0
 70
   688
 72
     0
 73
     0
 74
     5
  7

 75
    16
147
1.0
148
0.0
149
0.0
100
AcDbLayout
  1
Layout1
 70
     1
 71
     1
 10
0.0
 20
0.0
 11
12.0
 21
9.0
 12
0.0
 22
0.0
 32
0.0
 14
1.0000000000E+20
 24
1.0000000000E+20
 34
1.0000000000E+20
 15
-1.0000000000E+20
 25
-1.0000000000E+20
 35
-1.0000000000E+20
146
0.0
 13
0.0
 23
0.0
 33
0.0
 16
1.0
 26
0.0
 36
0.0
 17
0.0
 27
1.0
 37
0.0
 76
     0
330
1B
  0
LAYOUT
  5
26
102
{ACAD_REACTORS
330
1A
102
}
330
1A
100
AcDbPlotSettings
  1

  2
none_device
  4

  6

 40
0.0
 41
0.0
 42
0.0
 43
0.0
 44
0.0
 45
0.0
 46
0.0
 47
0.0
 48
0.0
 49
0.0
140
0.0
141
0.0
142
1.0
143
1.0
 70
   688
 72
     0
 73
     0
 74
     5
  7

 75
    16
147
1.0
148
0.0
149
0.0
100
AcDbLayout
  1
Layout2
 70
     1
 71
     2
 10
0.0
 20
0.0
 11
0.0
 21
0.0
 12
0.0
 22
0.0
 32
0.0
 14
0.0
 24
0.0
 34
0.0
 15
0.0
 25
0.0
 35
0.0
146
0.0
 13
0.0
 23
0.0
 33
0.0
 16
1.0
 26
0.0
 36
0.0
 17
0.0
 27
1.0
 37
0.0
 76
     0
330
23
  0
LAYOUT
  5
22
102
{ACAD_REACTORS
330
1A
102
}
330
1A
100
AcDbPlotSettings
  1

  2
none_device
  4
ANSI_A_(11.00_x_8.50_Inches)
  6

 40
6.35
 41
19.05
 42
6.35000508
 43
19.05000254
 44
279.4
 45
215.9
 46
-85.2932942745
 47
-34.3457660142
 48
0.0
 49
0.0
140
0.0
141
0.0
142
0.785508943
143
1.0
 70
  1696
 72
     0
 73
     0
 74
     0
  7

 75
     0
147
0.5913241897
148
0.0
149
0.0
100
AcDbLayout
  1
Model
 70
     1
 71
     0
 10
0.0
 20
0.0
 11
12.0
 21
9.0
 12
0.0
 22
0.0
 32
0.0
 14
4.0266933175
 24
1.3898652054
 34
0.0
 15
17.8903165102
 25
10.9644065204
 35
0.0
146
0.0
 13
0.0
 23
0.0
 33
0.0
 16
1.0
 26
0.0
 36
0.0
 17
0.0
 27
1.0
 37
0.0
 76
     0
330
1F
331
29
  0
MLINESTYLE
  5
18
102
{ACAD_REACTORS
330
17
102
}
330
17
100
AcDbMlineStyle
  2
Standard
 70
     0
  3

 62
   256
 51
90.0
 52
90.0
 71
     2
 49
0.5
 62
   256
  6
BYLAYER
 49
-0.5
 62
   256
  6
BYLAYER
  0
ACDBPLACEHOLDER
  5
F
102
{ACAD_REACTORS
330
E
102
}
330
E
  0
ENDSEC
  0
EOF
