  0
SECTION
  2
HEADER
  9
$ACADVER
  1
AC1015
  9
$ACADMAINTVER
 70
     6
  9
$DWGCODEPAGE
  3
ANSI_1252
  9
$INSBASE
 10
0.0
 20
0.0
 30
0.0
  9
$EXTMIN
 10
12.6539158939
 20
1.4947533137
 30
0.0
  9
$EXTMAX
 10
17.8087759769
 20
10.166186082
 30
0.0
  9
$LIMMIN
 10
0.0
 20
0.0
  9
$LIMMAX
 10
12.0
 20
9.0
  9
$ORTHOMODE
 70
     0
  9
$REGENMODE
 70
     1
  9
$FILLMODE
 70
     1
  9
$QTEXTMODE
 70
     0
  9
$MIRRTEXT
 70
     1
  9
$LTSCALE
 40
1.0
  9
$ATTMODE
 70
     1
  9
$TEXTSIZE
 40
0.125
  9
$TRACEWID
 40
0.05
  9
$TEXTSTYLE
  7
Standard
  9
$CLAYER
  8
0
  9
$CELTYPE
  6
ByLayer
  9
$CECOLOR
 62
   256
  9
$CELTSCALE
 40
1.0
  9
$DISPSILH
 70
     0
  9
$DIMSCALE
 40
1.0
  9
$DIMASZ
 40
0.13
  9
$DIMEXO
 40
0.05
  9
$DIMDLI
 40
0.38
  9
$DIMRND
 40
0.0
  9
$DIMDLE
 40
0.0
  9
$DIMEXE
 40
0.125
  9
$DIMTP
 40
0.0
  9
$DIMTM
 40
0.0
  9
$DIMTXT
 40
0.125
  9
$DIMCEN
 40
0.09
  9
$DIMTSZ
 40
0.0
  9
$DIMTOL
 70
     0
  9
$DIMLIM
 70
     0
  9
$DIMTIH
 70
     1
  9
$DIMTOH
 70
     1
  9
$DIMSE1
 70
     0
  9
$DIMSE2
 70
     0
  9
$DIMTAD
 70
     0
  9
$DIMZIN
 70
     0
  9
$DIMBLK
  1

  9
$DIMASO
 70
     1
  9
$DIMSHO
 70
     1
  9
$DIMPOST
  1

  9
$DIMAPOST
  1

  9
$DIMALT
 70
     0
  9
$DIMALTD
 70
     2
  9
$DIMALTF
 40
25.4
  9
$DIMLFAC
 40
1.0
  9
$DIMTOFL
 70
     0
  9
$DIMTVP
 40
0.0
  9
$DIMTIX
 70
     0
  9
$DIMSOXD
 70
     0
  9
$DIMSAH
 70
     0
  9
$DIMBLK1
  1

  9
$DIMBLK2
  1

  9
$DIMSTYLE
  2
Standard
  9
$DIMCLRD
 70
     0
  9
$DIMCLRE
 70
     0
  9
$DIMCLRT
 70
     0
  9
$DIMTFAC
 40
1.0
  9
$DIMGAP
 40
0.06
  9
$DIMJUST
 70
     0
  9
$DIMSD1
 70
     0
  9
$DIMSD2
 70
     0
  9
$DIMTOLJ
 70
     1
  9
$DIMTZIN
 70
     0
  9
$DIMALTZ
 70
     0
  9
$DIMALTTZ
 70
     0
  9
$DIMUPT
 70
     0
  9
$DIMDEC
 70
     3
  9
$DIMTDEC
 70
     3
  9
$DIMALTU
 70
     2
  9
$DIMALTTD
 70
     2
  9
$DIMTXSTY
  7
Standard
  9
$DIMAUNIT
 70
     0
  9
$DIMADEC
 70
     2
  9
$DIMALTRND
 40
0.0
  9
$DIMAZIN
 70
     0
  9
$DIMDSEP
 70
    46
  9
$DIMATFIT
 70
     3
  9
$DIMFRAC
 70
     0
  9
$DIMLDRBLK
  1

  9
$DIMLUNIT
 70
     2
  9
$DIMLWD
 70
    -2
  9
$DIMLWE
 70
    -2
  9
$DIMTMOVE
 70
     0
  9
$LUNITS
 70
     2
  9
$LUPREC
 70
     3
  9
$SKETCHINC
 40
0.1
  9
$FILLETRAD
 40
0.5
  9
$AUNITS
 70
     0
  9
$AUPREC
 70
     2
  9
$MENU
  1
.
  9
$ELEVATION
 40
0.0
  9
$PELEVATION
 40
0.0
  9
$THICKNESS
 40
0.0
  9
$LIMCHECK
 70
     0
  9
$CHAMFERA
 40
0.5
  9
$CHAMFERB
 40
0.5
  9
$CHAMFERC
 40
1.0
  9
$CHAMFERD
 40
0.0
  9
$SKPOLY
 70
     0
  9
$TDCREATE
 40
2456055.613025093
  9
$TDUCREATE
 40
2456055.779691759
  9
$TDUPDATE
 40
2456055.613051493
  9
$TDUUPDATE
 40
2456055.77971816
  9
$TDINDWG
 40
0.0000000116
  9
$TDUSRTIMER
 40
0.0000000116
  9
$USRTIMER
 70
     1
  9
$ANGBASE
 50
0.0
  9
$ANGDIR
 70
     0
  9
$PDMODE
 70
     0
  9
$PDSIZE
 40
-1.0
  9
$PLINEWID
 40
0.0
  9
$SPLFRAME
 70
     0
  9
$SPLINETYPE
 70
     6
  9
$SPLINESEGS
 70
     8
  9
$HANDSEED
  5
54
  9
$SURFTAB1
 70
     6
  9
$SURFTAB2
 70
     6
  9
$SURFTYPE
 70
     6
  9
$SURFU
 70
     6
  9
$SURFV
 70
     6
  9
$UCSBASE
  2

  9
$UCSNAME
  2

  9
$UCSORG
 10
0.0
 20
0.0
 30
0.0
  9
$UCSXDIR
 10
1.0
 20
0.0
 30
0.0
  9
$UCSYDIR
 10
0.0
 20
1.0
 30
0.0
  9
$UCSORTHOREF
  2

  9
$UCSORTHOVIEW
 70
     0
  9
$UCSORGTOP
 10
0.0
 20
0.0
 30
0.0
  9
$UCSORGBOTTOM
 10
0.0
 20
0.0
 30
0.0
  9
$UCSORGLEFT
 10
0.0
 20
0.0
 30
0.0
  9
$UCSORGRIGHT
 10
0.0
 20
0.0
 30
0.0
  9
$UCSORGFRONT
 10
0.0
 20
0.0
 30
0.0
  9
$UCSORGBACK
 10
0.0
 20
0.0
 30
0.0
  9
$PUCSBASE
  2

  9
$PUCSNAME
  2

  9
$PUCSORG
 10
0.0
 20
0.0
 30
0.0
  9
$PUCSXDIR
 10
1.0
 20
0.0
 30
0.0
  9
$PUCSYDIR
 10
0.0
 20
1.0
 30
0.0
  9
$PUCSORTHOREF
  2

  9
$PUCSORTHOVIEW
 70
     0
  9
$PUCSORGTOP
 10
0.0
 20
0.0
 30
0.0
  9
$PUCSORGBOTTOM
 10
0.0
 20
0.0
 30
0.0
  9
$PUCSORGLEFT
 10
0.0
 20
0.0
 30
0.0
  9
$PUCSORGRIGHT
 10
0.0
 20
0.0
 30
0.0
  9
$PUCSORGFRONT
 10
0.0
 20
0.0
 30
0.0
  9
$PUCSORGBACK
 10
0.0
 20
0.0
 30
0.0
  9
$USERI1
 70
     0
  9
$USERI2
 70
     0
  9
$USERI3
 70
     0
  9
$USERI4
 70
     0
  9
$USERI5
 70
     0
  9
$USERR1
 40
0.0
  9
$USERR2
 40
0.0
  9
$USERR3
 40
0.0
  9
$USERR4
 40
0.0
  9
$USERR5
 40
0.0
  9
$WORLDVIEW
 70
     1
  9
$SHADEDGE
 70
     3
  9
$SHADEDIF
 70
    70
  9
$TILEMODE
 70
     1
  9
$MAXACTVP
 70
    64
  9
$PINSBASE
 10
0.0
 20
0.0
 30
0.0
  9
$PLIMCHECK
 70
     0
  9
$PEXTMIN
 10
1.0000000000E+20
 20
1.0000000000E+20
 30
1.0000000000E+20
  9
$PEXTMAX
 10
-1.0000000000E+20
 20
-1.0000000000E+20
 30
-1.0000000000E+20
  9
$PLIMMIN
 10
0.0
 20
0.0
  9
$PLIMMAX
 10
12.0
 20
9.0
  9
$UNITMODE
 70
     0
  9
$VISRETAIN
 70
     1
  9
$PLINEGEN
 70
     0
  9
$PSLTSCALE
 70
     1
  9
$TREEDEPTH
 70
  3020
  9
$CMLSTYLE
  2
Standard
  9
$CMLJUST
 70
     0
  9
$CMLSCALE
 40
1.0
  9
$PROXYGRAPHICS
 70
     1
  9
$MEASUREMENT
 70
     0
  9
$CELWEIGHT
370
    -1
  9
$ENDCAPS
280
     0
  9
$JOINSTYLE
280
     0
  9
$LWDISPLAY
290
     1
  9
$INSUNITS
 70
     1
  9
$HYPERLINKBASE
  1

  9
$STYLESHEET
  1

  9
$XEDIT
290
     1
  9
$CEPSNTYPE
380
     0
  9
$PSTYLEMODE
290
     1
  9
$FINGERPRINTGUID
  2
{41D8DA27-97DE-4F9E-87C2-FED50A873AB8}
  9
$VERSIONGUID
  2
{FAEB1C32-E019-11D5-929B-00C0DF256EC4}
  9
$EXTNAMES
290
     1
  9
$PSVPSCALE
 40
0.0
  9
$OLESTARTUP
290
     0
  0
ENDSEC
  0
SECTION
  2
CLASSES
  0
CLASS
  1
ACDBDICTIONARYWDFLT
  2
AcDbDictionaryWithDefault
  3
ObjectDBX Classes
 90
        0
280
     0
281
     0
  0
CLASS
  1
VISUALSTYLE
  2
AcDbVisualStyle
  3
ObjectDBX Classes
 90
     4095
280
     0
281
     0
  0
CLASS
  1
MATERIAL
  2
AcDbMaterial
  3
ObjectDBX Classes
 90
     1153
280
     0
281
     0
  0
CLASS
  1
ACDBPLACEHOLDER
  2
AcDbPlaceHolder
  3
ObjectDBX Classes
 90
        0
280
     0
281
     0
  0
CLASS
  1
LAYOUT
  2
AcDbLayout
  3
ObjectDBX Classes
 90
        0
280
     0
281
     0
  0
ENDSEC
  0
SECTION
  2
TABLES
  0
TABLE
  2
VPORT
  5
8
330
0
100
AcDbSymbolTable
 70
     1
  0
VPORT
  5
29
330
8
100
AcDbSymbolTableRecord
100
AcDbViewportTableRecord
  2
*Active
 70
     0
 10
0.0
 20
0.0
 11
1.0
 21
1.0
 12
15.2313459354
 22
5.8304696979
 13
0.0
 23
0.0
 14
0.5
 24
0.5
 15
0.5
 25
0.5
 16
0.0
 26
0.0
 36
1.0
 17
0.0
 27
0.0
 37
0.0
 40
8.8448614237
 41
0.5944646312
 42
50.0
 43
0.0
 44
0.0
 50
0.0
 51
0.0
 71
     0
 72
   100
 73
     1
 74
     3
 75
     0
 76
     0
 77
     0
 78
     0
281
     0
 65
     1
110
0.0
120
0.0
130
0.0
111
1.0
121
0.0
131
0.0
112
0.0
122
1.0
132
0.0
 79
     0
146
0.0
  0
ENDTAB
  0
TABLE
  2
LTYPE
  5
5
330
0
100
AcDbSymbolTable
 70
     6
  0
LTYPE
  5
14
330
5
100
AcDbSymbolTableRecord
100
AcDbLinetypeTableRecord
  2
ByBlock
 70
     0
  3

 72
    65
 73
     0
 40
0.0
  0
LTYPE
  5
15
330
5
100
AcDbSymbolTableRecord
100
AcDbLinetypeTableRecord
  2
ByLayer
 70
     0
  3

 72
    65
 73
     0
 40
0.0
  0
LTYPE
  5
16
330
5
100
AcDbSymbolTableRecord
100
AcDbLinetypeTableRecord
  2
Continuous
 70
     0
  3
Solid line
 72
    65
 73
     0
 40
0.0
  0
LTYPE
  5
3F
330
5
100
AcDbSymbolTableRecord
100
AcDbLinetypeTableRecord
  2
HIDDEN
 70
     0
  3
Hidden __ __ __ __ __ __ __ __ __ __ __ __ __ __
 72
    65
 73
     2
 40
0.075
 49
0.05
 74
     0
 49
-0.025
 74
     0
  0
LTYPE
  5
40
330
5
100
AcDbSymbolTableRecord
100
AcDbLinetypeTableRecord
  2
PHANTOM
 70
     0
  3
Phantom ______  __  __  ______  __  __  ______
 72
    65
 73
     6
 40
0.5
 49
0.25
 74
     0
 49
-0.05
 74
     0
 49
0.05
 74
     0
 49
-0.05
 74
     0
 49
0.05
 74
     0
 49
-0.05
 74
     0
  0
LTYPE
  5
41
330
5
100
AcDbSymbolTableRecord
100
AcDbLinetypeTableRecord
  2
CENTER
 70
     0
  3
Center ____ _ ____ _ ____ _ ____ _ ____ _ ____
 72
    65
 73
     4
 40
0.4
 49
0.25
 74
     0
 49
-0.05
 74
     0
 49
0.05
 74
     0
 49
-0.05
 74
     0
  0
LTYPE
  5
42
330
5
100
AcDbSymbolTableRecord
100
AcDbLinetypeTableRecord
  2
CENTERX2
 70
     0
  3
Center (2x) ________  __  ________  __  _____
 72
    65
 73
     4
 40
0.8
 49
0.5
 74
     0
 49
-0.1
 74
     0
 49
0.1
 74
     0
 49
-0.1
 74
     0
  0
LTYPE
  5
43
330
5
100
AcDbSymbolTableRecord
100
AcDbLinetypeTableRecord
  2
DOT2
 70
     0
  3
Dot (.5x) ........................................
 72
    65
 73
     2
 40
0.025
 49
0.0
 74
     0
 49
-0.025
 74
     0
  0
ENDTAB
  0
TABLE
  2
LAYER
  5
2
330
0
100
AcDbSymbolTable
 70
     1
  0
LAYER
  5
10
330
2
100
AcDbSymbolTableRecord
100
AcDbLayerTableRecord
  2
0
 70
     0
 62
     7
  6
Continuous
370
    -3
390
F
  0
ENDTAB
  0
TABLE
  2
STYLE
  5
3
330
0
100
AcDbSymbolTable
 70
     1
  0
STYLE
  5
11
330
3
100
AcDbSymbolTableRecord
100
AcDbTextStyleTableRecord
  2
Standard
 70
     0
 40
0.0
 41
1.0
 50
0.0
 71
     0
 42
0.125
  3
txt
  4

  0
ENDTAB
  0
TABLE
  2
VIEW
  5
6
330
0
100
AcDbSymbolTable
 70
     0
  0
ENDTAB
  0
TABLE
  2
UCS
  5
7
330
0
100
AcDbSymbolTable
 70
     0
  0
ENDTAB
  0
TABLE
  2
APPID
  5
9
330
0
100
AcDbSymbolTable
 70
     1
  0
APPID
  5
12
330
9
100
AcDbSymbolTableRecord
100
AcDbRegAppTableRecord
  2
ACAD
 70
     0
  0
ENDTAB
  0
TABLE
  2
DIMSTYLE
  5
A
330
0
100
AcDbSymbolTable
 70
     1
100
AcDbDimStyleTable
  0
DIMSTYLE
105
27
330
A
100
AcDbSymbolTableRecord
100
AcDbDimStyleTableRecord
  2
Standard
 70
     0
178
     0
340
11
  0
ENDTAB
  0
TABLE
  2
BLOCK_RECORD
  5
1
330
0
100
AcDbSymbolTable
 70
     1
  0
BLOCK_RECORD
  5
1F
330
1
100
AcDbSymbolTableRecord
100
AcDbBlockTableRecord
  2
*Model_Space
340
22
  0
BLOCK_RECORD
  5
1B
330
1
100
AcDbSymbolTableRecord
100
AcDbBlockTableRecord
  2
*Paper_Space
340
1E
  0
BLOCK_RECORD
  5
23
330
1
100
AcDbSymbolTableRecord
100
AcDbBlockTableRecord
  2
*Paper_Space0
340
26
  0
ENDTAB
  0
ENDSEC
  0
SECTION
  2
BLOCKS
  0
BLOCK
  5
20
330
1F
100
AcDbEntity
  8
0
100
AcDbBlockBegin
  2
*Model_Space
 70
     0
 10
0.0
 20
0.0
 30
0.0
  3
*Model_Space
  1

  0
ENDBLK
  5
21
330
1F
100
AcDbEntity
  8
0
100
AcDbBlockEnd
  0
BLOCK
  5
1C
330
1B
100
AcDbEntity
 67
     1
  8
0
100
AcDbBlockBegin
  2
*Paper_Space
 70
     0
 10
0.0
 20
0.0
 30
0.0
  3
*Paper_Space
  1

  0
ENDBLK
  5
1D
330
1B
100
AcDbEntity
 67
     1
  8
0
100
AcDbBlockEnd
  0
BLOCK
  5
24
330
23
100
AcDbEntity
  8
0
100
AcDbBlockBegin
  2
*Paper_Space0
 70
     0
 10
0.0
 20
0.0
 30
0.0
  3
*Paper_Space0
  1

  0
ENDBLK
  5
25
330
23
100
AcDbEntity
  8
0
100
AcDbBlockEnd
  0
ENDSEC
  0
SECTION
  2
ENTITIES
  0
CIRCLE
  5
44
330
1F
100
AcDbEntity
  8
0
  6
Continuous
 62
     7
370
    15
100
AcDbCircle
 10
12.889033529
 20
9.9587124883
 30
0.0
 40
0.0847499999999997
  0
CIRCLE
  5
45
330
1F
100
AcDbEntity
  8
0
  6
Continuous
 62
     7
370
    15
100
AcDbCircle
 10
17.5817451777
 20
1.7287029471
 30
0.0
 40
0.0847500000000001
  0
CIRCLE
  5
46
330
1F
100
AcDbEntity
  8
0
  6
Continuous
 62
     7
370
    15
100
AcDbCircle
 10
12.8189158939
 20
5.7331818629
 30
0.0
 40
0.0847499999999997
  0
SPLINE
  5
48
330
1F
100
AcDbEntity
  8
0
  6
Continuous
 62
     7
370
    15
100
AcDbSpline
210
0.0
220
0.0
230
1.0
 70
     8
 71
     3
 72
    28
 73
    24
 74
     0
 42
0.00000001
 43
0.00000001
 12
1.0
 22
0.0
 32
0.0
 13
1.0
 23
0.0
 33
0.0
 40
0.0
 40
0.0
 40
0.0
 40
0.0
 40
0.0179269118160979
 40
0.0357937326921032
 40
0.0536188980872558
 40
0.071420972873911
 40
0.0892185941827062
 40
0.1070304131237525
 40
0.124875036289354
 40
0.1875096946858536
 40
0.2500776746783016
 40
0.3124962858919042
 40
0.3749244196370589
 40
0.4994944201990721
 40
0.6245107315958252
 40
0.6869058526566109
 40
0.7494997661523448
 40
0.8117668959466527
 40
0.8742381193573207
 40
0.9056522139520584
 40
0.9370206805335739
 40
0.9684384478996336
 40
0.9999999999999999
 40
0.9999999999999999
 40
0.9999999999999999
 40
0.9999999999999999
 10
13.09107522067481
 20
10.1562300899913
 30
0.0
 10
13.08732328445743
 20
10.15709915257663
 30
0.0
 10
13.07983198849857
 20
10.15883436465282
 30
0.0
 10
13.06851194987363
 20
10.16097716804978
 30
0.0
 10
13.05716072701553
 20
10.16277556882394
 30
0.0
 10
13.04577053976704
 20
10.16419729970095
 30
0.0
 10
13.03434362128557
 20
10.16525101261248
 30
0.0
 10
13.02287901771418
 20
10.16593423000864
 30
0.0
 10
13.00177081646535
 20
10.16651051321714
 30
0.0
 10
12.97099746748908
 20
10.16511398176046
 30
0.0
 10
12.93113189118795
 20
10.15863712057746
 30
0.0
 10
12.89229578731719
 20
10.14768009921235
 30
0.0
 10
12.84266458485947
 20
10.12723429295071
 30
0.0
 10
12.78543666621001
 20
10.09114819186167
 30
0.0
 10
12.737968881074
 20
10.04296040747371
 30
0.0
 10
12.70721361813021
 20
9.998819160334833
 30
0.0
 10
12.68805042020683
 20
9.963351334941173
 30
0.0
 10
12.67291060911485
 20
9.925980538637218
 30
0.0
 10
12.66383518573921
 20
9.893611219417425
 30
0.0
 10
12.65869676029643
 20
9.867188257133114
 30
0.0
 10
12.65595167775339
 20
9.847131153176141
 30
0.0
 10
12.6542340124183
 20
9.826921642379125
 30
0.0
 10
12.65402209468654
 20
9.813391119314034
 30
0.0
 10
12.65391589391161
 20
9.806610412372734
 30
0.0
  0
SPLINE
  5
4A
330
1F
100
AcDbEntity
  8
0
  6
Continuous
 62
     7
370
    15
100
AcDbSpline
210
0.0
220
0.0
230
1.0
 70
     8
 71
     3
 72
    11
 73
     7
 74
     0
 42
0.00000001
 43
0.00000001
 12
1.0
 22
0.0
 32
0.0
 13
1.0
 23
0.0
 33
0.0
 40
0.0
 40
0.0
 40
0.0
 40
0.0
 40
0.2698667207755986
 40
0.50000222491656
 40
0.750001237103692
 40
1.0
 40
1.0
 40
1.0
 40
1.0
 10
13.96155256036254
 20
9.925599558110825
 30
0.0
 10
13.91902106612795
 20
9.937752958314555
 30
0.0
 10
13.84021979087177
 20
9.960270470383852
 30
0.0
 10
13.72181707714611
 20
9.99333630288409
 30
0.0
 10
13.60635740587535
 20
10.02482692545455
 30
0.0
 10
13.52713173170065
 20
10.04579980647029
 30
0.0
 10
13.48751891436362
 20
10.0562862417498
 30
0.0
  0
SPLINE
  5
4B
330
1F
100
AcDbEntity
  8
0
  6
Continuous
 62
     7
370
    15
100
AcDbSpline
210
0.0
220
0.0
230
1.0
 70
     8
 71
     3
 72
    73
 73
    69
 74
     0
 42
0.00000001
 43
0.00000001
 12
1.0
 22
0.0
 32
0.0
 13
1.0
 23
0.0
 33
0.0
 40
0.0
 40
0.0
 40
0.0
 40
0.0
 40
0.0133936812248531
 40
0.0280885112657352
 40
0.0440845152167855
 40
0.0613817125090584
 40
0.0739767685816518
 40
0.0920725536408787
 40
0.1227633926897777
 40
0.1841450157251333
 40
0.2148358802762351
 40
0.2301814316112175
 40
0.2378542267538322
 40
0.2416906180889902
 40
0.2436088866926106
 40
0.2455264947959446
 40
0.24745157632836
 40
0.2493878935373567
 40
0.2533578329915658
 40
0.2573260064602491
 40
0.2613142345856134
 40
0.2652753665038927
 40
0.2692715173186851
 40
0.2732480259077195
 40
0.2772267614306597
 40
0.2812064381678414
 40
0.2831771859635073
 40
0.2841621193137484
 40
0.2851472624899107
 40
0.2890875801036817
 40
0.2930278177857613
 40
0.308788934347824
 40
0.3389754249513279
 40
0.3718334110030069
 40
0.4101004461920829
 40
0.4979223750123974
 40
0.5294445983849302
 40
0.5460089344482777
 40
0.5609668471569532
 40
0.5773359670697761
 40
0.5924895745897383
 40
0.5980490086446559
 40
0.6003702199718642
 40
0.6046064460867496
 40
0.6082326339990906
 40
0.6160579588033375
 40
0.6238468767637828
 40
0.6448294226814181
 40
0.6656120155086842
 40
0.6864486877534937
 40
0.7067244840158637
 40
0.7274869757550454
 40
0.7489342759786686
 40
0.7794067560945461
 40
0.8117366205436883
 40
0.8421600936941915
 40
0.8744011237971538
 40
0.8899360853670459
 40
0.9058406335339766
 40
0.9212878198945703
 40
0.9372023128167303
 40
0.9458335500213759
 40
0.9545760272939913
 40
0.9634310196482488
 40
0.9723997541118258
 40
0.981483411619392
 40
0.9906831288489493
 40
1.0
 40
1.0
 40
1.0
 40
1.0
 10
14.0
 20
1.494753313684879
 30
0.0
 10
14.0631354741205
 20
1.494786344739793
 30
0.0
 10
14.19553981063781
 20
1.494855615699921
 30
0.0
 10
14.40334600546031
 20
1.495357324366652
 30
0.0
 10
14.62955185731833
 20
1.496140647554611
 30
0.0
 10
14.84585892423426
 20
1.497115174949877
 30
0.0
 10
15.072063059885
 20
1.498297029741221
 30
0.0
 10
15.36140124473007
 20
1.499879159269962
 30
0.0
 10
15.88070732227798
 20
1.502713075103902
 30
0.0
 10
16.45938916586434
 20
1.504872319997408
 30
0.0
 10
16.96573583037202
 20
1.506275998080527
 30
0.0
 10
17.21891252650511
 20
1.506923869597185
 30
0.0
 10
17.3454984395343
 20
1.507176338977275
 30
0.0
 10
17.40879614867544
 20
1.507389127200921
 30
0.0
 10
17.44495657454555
 20
1.50738257224688
 30
0.0
 10
17.47212902607397
 20
1.507508944002755
 30
0.0
 10
17.49927690970691
 20
1.510231291092147
 30
0.0
 10
17.53563032113631
 20
1.516802233542767
 30
0.0
 10
17.5802972856149
 20
1.530725690798583
 30
0.0
 10
17.63066098826007
 20
1.556247010625613
 30
0.0
 10
17.67631433679879
 20
1.58938137508755
 30
0.0
 10
17.71631386349926
 20
1.629347801995775
 30
0.0
 10
17.74947026714964
 20
1.675067720784615
 30
0.0
 10
17.77544812857525
 20
1.725304421895967
 30
0.0
 10
17.79329478491779
 20
1.778888557873052
 30
0.0
 10
17.80127406423896
 20
1.825202846563098
 30
0.0
 10
17.80313826698149
 20
1.857868655546667
 30
0.0
 10
17.80322188005028
 20
1.876446317535257
 30
0.0
 10
17.80313894324874
 20
1.904306405193444
 30
0.0
 10
17.80327042285105
 20
1.94609808909005
 30
0.0
 10
17.80350365122285
 20
2.057540239333921
 30
0.0
 10
17.80388556332159
 20
2.292702818221747
 30
0.0
 10
17.80454389369572
 20
2.664177833623267
 30
0.0
 10
17.80530139114844
 20
3.141742046313718
 30
0.0
 10
17.80654817562935
 20
3.890989122812161
 30
0.0
 10
17.80782380739519
 20
4.633939501034194
 30
0.0
 10
17.8088433531371
 20
5.274587729233376
 30
0.0
 10
17.80876838409464
 20
5.571768466606146
 30
0.0
 10
17.80833592824424
 20
5.79751970021411
 30
0.0
 10
17.80745328346403
 20
6.016619757373652
 30
0.0
 10
17.8062960977975
 20
6.191414959429418
 30
0.0
 10
17.80536235980104
 20
6.299990445429521
 30
0.0
 10
17.80492485318374
 20
6.357105513058583
 30
0.0
 10
17.80421544369637
 20
6.405105524503135
 30
0.0
 10
17.80205586069741
 20
6.479025670713881
 30
0.0
 10
17.79672611572333
 20
6.569593257588521
 30
0.0
 10
17.7800437222461
 20
6.741321084821853
 30
0.0
 10
17.740546942831
 20
6.972067173108616
 30
0.0
 10
17.65881100705883
 20
7.256231760686694
 30
0.0
 10
17.54726240004801
 20
7.526481398861698
 30
0.0
 10
17.40758750846091
 20
7.783109166569401
 30
0.0
 10
17.24122600884771
 20
8.02675315664027
 30
0.0
 10
17.02175745345426
 20
8.290443090763974
 30
0.0
 10
16.73649220570236
 20
8.56805121712538
 30
0.0
 10
16.38988557429592
 20
8.83939991471031
 30
0.0
 10
16.01380037781898
 20
9.083271372012836
 30
0.0
 10
15.6900644559438
 20
9.26024538826638
 30
0.0
 10
15.4200686886051
 20
9.391498482140083
 30
0.0
 10
15.21852707688898
 20
9.482293509612335
 30
0.0
 10
15.01295049097927
 20
9.56826113378816
 30
0.0
 10
14.83725367483248
 20
9.63665541038262
 30
0.0
 10
14.69003123974568
 20
9.690958229152104
 30
0.0
 10
14.57351472481888
 20
9.732321696779595
 30
0.0
 10
14.4550080040721
 20
9.77280641917474
 30
0.0
 10
14.33451284577059
 20
9.812419892634328
 30
0.0
 10
14.21202055217949
 20
9.851131486280702
 30
0.0
 10
14.08756466859989
 20
9.889058405172195
 30
0.0
 10
14.00373339579136
 20
9.913367905295521
 30
0.0
 10
13.96155256036253
 20
9.925599558110825
 30
0.0
  0
SPLINE
  5
4D
330
1F
100
AcDbEntity
  8
0
  6
Continuous
 62
     7
370
    15
100
AcDbSpline
210
0.0
220
0.0
230
1.0
 70
     8
 71
     3
 72
    22
 73
    18
 74
     0
 42
0.00000001
 43
0.00000001
 12
1.0
 22
0.0
 32
0.0
 13
1.0
 23
0.0
 33
0.0
 40
0.0
 40
0.0
 40
0.0
 40
0.0
 40
0.036129476668074
 40
0.0719466381762972
 40
0.1075571996694107
 40
0.1430687214384812
 40
0.1785896634868974
 40
0.2142283998114337
 40
0.2500922365660923
 40
0.3750481973009869
 40
0.4996997120117295
 40
0.6244621411246803
 40
0.7492413444143705
 40
0.8120663580964527
 40
0.8743810895660932
 40
0.9368165163167289
 40
1.0
 40
1.0
 40
1.0
 40
1.0
 10
12.65391589391166
 20
1.603364246711458
 30
0.0
 10
12.65394761824251
 20
1.601323025156772
 30
0.0
 10
12.65401079266858
 20
1.597258227042424
 30
0.0
 10
12.65451848253014
 20
1.59119899592401
 30
0.0
 10
12.65532959333087
 20
1.585210203308128
 30
0.0
 10
12.65647307153666
 20
1.579291971642531
 30
0.0
 10
12.65794103126085
 20
1.573444611242708
 30
0.0
 10
12.65973615147334
 20
1.56766774986384
 30
0.0
 10
12.66360172563427
 20
1.557262205245505
 30
0.0
 10
12.67106083398628
 20
1.542831188824782
 30
0.0
 10
12.68442265135103
 20
1.526268151694903
 30
0.0
 10
12.70069757658783
 20
1.512563435434823
 30
0.0
 10
12.71634201701748
 20
1.504127501742698
 30
0.0
 10
12.72962223564092
 20
1.499279301256826
 30
0.0
 10
12.73990967415898
 20
1.496676176650881
 30
0.0
 10
12.75042780745746
 20
1.495051696114612
 30
0.0
 10
12.75752713554029
 20
1.494853168570026
 30
0.0
 10
12.76109793772711
 20
1.494753313684876
 30
0.0
  0
CIRCLE
  5
4E
330
1F
100
AcDbEntity
  8
0
  6
Continuous
 62
     7
370
    15
100
AcDbCircle
 10
17.6437745679
 20
5.348682782
 30
0.0
 40
0.0847500000000014
  0
CIRCLE
  5
4F
330
1F
100
AcDbEntity
  8
0
  6
Continuous
 62
     7
370
    15
100
AcDbCircle
 10
16.2845323753
 20
8.7037855624
 30
0.0
 40
0.0847499999999997
  0
CIRCLE
  5
50
330
1F
100
AcDbEntity
  8
0
  6
Continuous
 62
     7
370
    15
100
AcDbCircle
 10
12.8189158939
 20
1.6597533137
 30
0.0
 40
0.0847500000000001
  0
LINE
  5
51
330
1F
100
AcDbEntity
  8
0
  6
Continuous
 62
     7
370
    15
100
AcDbLine
 10
12.6539158939
 20
9.8066104124
 30
0.0
 11
12.6539158939
 21
1.6033642467
 31
0.0
  0
LINE
  5
52
330
1F
100
AcDbEntity
  8
0
  6
Continuous
 62
     7
370
    15
100
AcDbLine
 10
12.7610979377
 20
1.4947533137
 30
0.0
 11
14.0
 21
1.4947533137
 31
0.0
  0
ARC
  5
53
330
1F
100
AcDbEntity
  8
0
  6
Continuous
 62
     7
370
    15
100
AcDbCircle
 10
8.3227552071
 20
-9.5943460716
 30
0.0
 40
20.31802486627084
100
AcDbArc
 50
75.2740414754
 51
76.4269900705
  0
ENDSEC
  0
SECTION
  2
OBJECTS
  0
DICTIONARY
  5
C
330
0
100
AcDbDictionary
281
     1
  3
ACAD_GROUP
350
D
  3
ACAD_LAYOUT
350
1A
  3
ACAD_MLINESTYLE
350
17
  3
ACAD_PLOTSETTINGS
350
19
  3
ACAD_PLOTSTYLENAME
350
E
  0
DICTIONARY
  5
D
102
{ACAD_REACTORS
330
C
102
}
330
C
100
AcDbDictionary
281
     1
  0
DICTIONARY
  5
1A
102
{ACAD_REACTORS
330
C
102
}
330
C
100
AcDbDictionary
281
     1
  3
Layout1
350
1E
  3
Layout2
350
26
  3
Model
350
22
  0
DICTIONARY
  5
17
102
{ACAD_REACTORS
330
C
102
}
330
C
100
AcDbDictionary
281
     1
  3
Standard
350
18
  0
DICTIONARY
  5
19
102
{ACAD_REACTORS
330
C
102
}
330
C
100
AcDbDictionary
281
     1
  0
ACDBDICTIONARYWDFLT
  5
E
102
{ACAD_REACTORS
330
C
102
}
330
C
100
AcDbDictionary
281
     1
  3
Normal
350
F
100
AcDbDictionaryWithDefault
340
F
  0
LAYOUT
  5
1E
102
{ACAD_REACTORS
330
1A
102
}
330
1A
100
AcDbPlotSettings
  1

  2
none_device
  4

  6

 40
0.0
 41
0.0
 42
0.0
 43
0.0
 44
0.0
 45
0.0
 46
0.0
 47
0.0
 48
0.0
 49
0.0
140
0.0
141
0.0
142
1.0
143
1.0
 70
   688
 72
     0
 73
     0
 74
     5
  7

 75
    16
147
1.0
148
0.0
149
0.0
100
AcDbLayout
  1
Layout1
 70
     1
 71
     1
 10
0.0
 20
0.0
 11
12.0
 21
9.0
 12
0.0
 22
0.0
 32
0.0
 14
1.0000000000E+20
 24
1.0000000000E+20
 34
1.0000000000E+20
 15
-1.0000000000E+20
 25
-1.0000000000E+20
 35
-1.0000000000E+20
146
0.0
 13
0.0
 23
0.0
 33
0.0
 16
1.0
 26
0.0
 36
0.0
 17
0.0
 27
1.0
 37
0.0
 76
     0
330
1B
  0
LAYOUT
  5
26
102
{ACAD_REACTORS
330
1A
102
}
330
1A
100
AcDbPlotSettings
  1

  2
none_device
  4

  6

 40
0.0
 41
0.0
 42
0.0
 43
0.0
 44
0.0
 45
0.0
 46
0.0
 47
0.0
 48
0.0
 49
0.0
140
0.0
141
0.0
142
1.0
143
1.0
 70
   688
 72
     0
 73
     0
 74
     5
  7

 75
    16
147
1.0
148
0.0
149
0.0
100
AcDbLayout
  1
Layout2
 70
     1
 71
     2
 10
0.0
 20
0.0
 11
0.0
 21
0.0
 12
0.0
 22
0.0
 32
0.0
 14
0.0
 24
0.0
 34
0.0
 15
0.0
 25
0.0
 35
0.0
146
0.0
 13
0.0
 23
0.0
 33
0.0
 16
1.0
 26
0.0
 36
0.0
 17
0.0
 27
1.0
 37
0.0
 76
     0
330
23
  0
LAYOUT
  5
22
102
{ACAD_REACTORS
330
1A
102
}
330
1A
100
AcDbPlotSettings
  1

  2
none_device
  4
ANSI_A_(11.00_x_8.50_Inches)
  6

 40
6.35
 41
19.05
 42
6.35000508
 43
19.05000254
 44
279.4
 45
215.9
 46
-242.0854350163
 47
-54.8144781023
 48
0.0
 49
0.0
140
0.0
141
0.0
142
0.9704278664
143
1.0
 70
  1696
 72
     0
 73
     0
 74
     0
  7

 75
     0
147
0.5913241897
148
0.0
149
0.0
100
AcDbLayout
  1
Model
 70
     1
 71
     0
 10
0.0
 20
0.0
 11
12.0
 21
9.0
 12
0.0
 22
0.0
 32
0.0
 14
12.6539158939
 24
1.4947533137
 34
0.0
 15
17.8087759769
 25
10.166186082
 35
0.0
146
0.0
 13
0.0
 23
0.0
 33
0.0
 16
1.0
 26
0.0
 36
0.0
 17
0.0
 27
1.0
 37
0.0
 76
     0
330
1F
331
29
  0
MLINESTYLE
  5
18
102
{ACAD_REACTORS
330
17
102
}
330
17
100
AcDbMlineStyle
  2
Standard
 70
     0
  3

 62
   256
 51
90.0
 52
90.0
 71
     2
 49
0.5
 62
   256
  6
BYLAYER
 49
-0.5
 62
   256
  6
BYLAYER
  0
ACDBPLACEHOLDER
  5
F
102
{ACAD_REACTORS
330
E
102
}
330
E
  0
ENDSEC
  0
EOF
