  0
SECTION
  2
HEADER
  9
$ACADVER
  1
AC1015
  9
$ACADMAINTVER
 70
     6
  9
$DWGCODEPAGE
  3
ANSI_1252
  9
$INSBASE
 10
0.0
 20
0.0
 30
0.0
  9
$EXTMIN
 10
-17.8903470208
 20
1.389863889
 30
0.0
  9
$EXTMAX
 10
-4.0266933175
 20
10.9653673972
 30
0.0
  9
$LIMMIN
 10
0.0
 20
0.0
  9
$LIMMAX
 10
12.0
 20
9.0
  9
$ORTHOMODE
 70
     0
  9
$REGENMODE
 70
     1
  9
$FILLMODE
 70
     1
  9
$QTEXTMODE
 70
     0
  9
$MIRRTEXT
 70
     1
  9
$LTSCALE
 40
1.0
  9
$ATTMODE
 70
     1
  9
$TEXTSIZE
 40
0.125
  9
$TRACEWID
 40
0.05
  9
$TEXTSTYLE
  7
Standard
  9
$CLAYER
  8
0
  9
$CELTYPE
  6
ByLayer
  9
$CECOLOR
 62
   256
  9
$CELTSCALE
 40
1.0
  9
$DISPSILH
 70
     0
  9
$DIMSCALE
 40
1.0
  9
$DIMASZ
 40
0.13
  9
$DIMEXO
 40
0.05
  9
$DIMDLI
 40
0.38
  9
$DIMRND
 40
0.0
  9
$DIMDLE
 40
0.0
  9
$DIMEXE
 40
0.125
  9
$DIMTP
 40
0.0
  9
$DIMTM
 40
0.0
  9
$DIMTXT
 40
0.125
  9
$DIMCEN
 40
0.09
  9
$DIMTSZ
 40
0.0
  9
$DIMTOL
 70
     0
  9
$DIMLIM
 70
     0
  9
$DIMTIH
 70
     1
  9
$DIMTOH
 70
     1
  9
$DIMSE1
 70
     0
  9
$DIMSE2
 70
     0
  9
$DIMTAD
 70
     0
  9
$DIMZIN
 70
     0
  9
$DIMBLK
  1

  9
$DIMASO
 70
     1
  9
$DIMSHO
 70
     1
  9
$DIMPOST
  1

  9
$DIMAPOST
  1

  9
$DIMALT
 70
     0
  9
$DIMALTD
 70
     2
  9
$DIMALTF
 40
25.4
  9
$DIMLFAC
 40
1.0
  9
$DIMTOFL
 70
     0
  9
$DIMTVP
 40
0.0
  9
$DIMTIX
 70
     0
  9
$DIMSOXD
 70
     0
  9
$DIMSAH
 70
     0
  9
$DIMBLK1
  1

  9
$DIMBLK2
  1

  9
$DIMSTYLE
  2
Standard
  9
$DIMCLRD
 70
     0
  9
$DIMCLRE
 70
     0
  9
$DIMCLRT
 70
     0
  9
$DIMTFAC
 40
1.0
  9
$DIMGAP
 40
0.06
  9
$DIMJUST
 70
     0
  9
$DIMSD1
 70
     0
  9
$DIMSD2
 70
     0
  9
$DIMTOLJ
 70
     1
  9
$DIMTZIN
 70
     0
  9
$DIMALTZ
 70
     0
  9
$DIMALTTZ
 70
     0
  9
$DIMUPT
 70
     0
  9
$DIMDEC
 70
     4
  9
$DIMTDEC
 70
     4
  9
$DIMALTU
 70
     2
  9
$DIMALTTD
 70
     2
  9
$DIMTXSTY
  7
Standard
  9
$DIMAUNIT
 70
     0
  9
$DIMADEC
 70
     4
  9
$DIMALTRND
 40
0.0
  9
$DIMAZIN
 70
     0
  9
$DIMDSEP
 70
    46
  9
$DIMATFIT
 70
     3
  9
$DIMFRAC
 70
     0
  9
$DIMLDRBLK
  1

  9
$DIMLUNIT
 70
     2
  9
$DIMLWD
 70
    -2
  9
$DIMLWE
 70
    -2
  9
$DIMTMOVE
 70
     0
  9
$LUNITS
 70
     2
  9
$LUPREC
 70
     4
  9
$SKETCHINC
 40
0.1
  9
$FILLETRAD
 40
0.5
  9
$AUNITS
 70
     0
  9
$AUPREC
 70
     2
  9
$MENU
  1
.
  9
$ELEVATION
 40
0.0
  9
$PELEVATION
 40
0.0
  9
$THICKNESS
 40
0.0
  9
$LIMCHECK
 70
     0
  9
$CHAMFERA
 40
0.5
  9
$CHAMFERB
 40
0.5
  9
$CHAMFERC
 40
1.0
  9
$CHAMFERD
 40
0.0
  9
$SKPOLY
 70
     0
  9
$TDCREATE
 40
2456055.609759572
  9
$TDUCREATE
 40
2456055.776426238
  9
$TDUPDATE
 40
2456055.609797905
  9
$TDUUPDATE
 40
2456055.776464572
  9
$TDINDWG
 40
0.0000000116
  9
$TDUSRTIMER
 40
0.0000000116
  9
$USRTIMER
 70
     1
  9
$ANGBASE
 50
0.0
  9
$ANGDIR
 70
     0
  9
$PDMODE
 70
     0
  9
$PDSIZE
 40
-1.0
  9
$PLINEWID
 40
0.0
  9
$SPLFRAME
 70
     0
  9
$SPLINETYPE
 70
     6
  9
$SPLINESEGS
 70
     8
  9
$HANDSEED
  5
5C
  9
$SURFTAB1
 70
     6
  9
$SURFTAB2
 70
     6
  9
$SURFTYPE
 70
     6
  9
$SURFU
 70
     6
  9
$SURFV
 70
     6
  9
$UCSBASE
  2

  9
$UCSNAME
  2

  9
$UCSORG
 10
0.0
 20
0.0
 30
0.0
  9
$UCSXDIR
 10
1.0
 20
0.0
 30
0.0
  9
$UCSYDIR
 10
0.0
 20
1.0
 30
0.0
  9
$UCSORTHOREF
  2

  9
$UCSORTHOVIEW
 70
     0
  9
$UCSORGTOP
 10
0.0
 20
0.0
 30
0.0
  9
$UCSORGBOTTOM
 10
0.0
 20
0.0
 30
0.0
  9
$UCSORGLEFT
 10
0.0
 20
0.0
 30
0.0
  9
$UCSORGRIGHT
 10
0.0
 20
0.0
 30
0.0
  9
$UCSORGFRONT
 10
0.0
 20
0.0
 30
0.0
  9
$UCSORGBACK
 10
0.0
 20
0.0
 30
0.0
  9
$PUCSBASE
  2

  9
$PUCSNAME
  2

  9
$PUCSORG
 10
0.0
 20
0.0
 30
0.0
  9
$PUCSXDIR
 10
1.0
 20
0.0
 30
0.0
  9
$PUCSYDIR
 10
0.0
 20
1.0
 30
0.0
  9
$PUCSORTHOREF
  2

  9
$PUCSORTHOVIEW
 70
     0
  9
$PUCSORGTOP
 10
0.0
 20
0.0
 30
0.0
  9
$PUCSORGBOTTOM
 10
0.0
 20
0.0
 30
0.0
  9
$PUCSORGLEFT
 10
0.0
 20
0.0
 30
0.0
  9
$PUCSORGRIGHT
 10
0.0
 20
0.0
 30
0.0
  9
$PUCSORGFRONT
 10
0.0
 20
0.0
 30
0.0
  9
$PUCSORGBACK
 10
0.0
 20
0.0
 30
0.0
  9
$USERI1
 70
     0
  9
$USERI2
 70
     0
  9
$USERI3
 70
     0
  9
$USERI4
 70
     0
  9
$USERI5
 70
     0
  9
$USERR1
 40
0.0
  9
$USERR2
 40
0.0
  9
$USERR3
 40
0.0
  9
$USERR4
 40
0.0
  9
$USERR5
 40
0.0
  9
$WORLDVIEW
 70
     1
  9
$SHADEDGE
 70
     3
  9
$SHADEDIF
 70
    70
  9
$TILEMODE
 70
     1
  9
$MAXACTVP
 70
    64
  9
$PINSBASE
 10
0.0
 20
0.0
 30
0.0
  9
$PLIMCHECK
 70
     0
  9
$PEXTMIN
 10
1.0000000000E+20
 20
1.0000000000E+20
 30
1.0000000000E+20
  9
$PEXTMAX
 10
-1.0000000000E+20
 20
-1.0000000000E+20
 30
-1.0000000000E+20
  9
$PLIMMIN
 10
0.0
 20
0.0
  9
$PLIMMAX
 10
12.0
 20
9.0
  9
$UNITMODE
 70
     0
  9
$VISRETAIN
 70
     1
  9
$PLINEGEN
 70
     0
  9
$PSLTSCALE
 70
     1
  9
$TREEDEPTH
 70
  3020
  9
$CMLSTYLE
  2
Standard
  9
$CMLJUST
 70
     0
  9
$CMLSCALE
 40
1.0
  9
$PROXYGRAPHICS
 70
     1
  9
$MEASUREMENT
 70
     0
  9
$CELWEIGHT
370
    -1
  9
$ENDCAPS
280
     0
  9
$JOINSTYLE
280
     0
  9
$LWDISPLAY
290
     1
  9
$INSUNITS
 70
     1
  9
$HYPERLINKBASE
  1

  9
$STYLESHEET
  1

  9
$XEDIT
290
     1
  9
$CEPSNTYPE
380
     0
  9
$PSTYLEMODE
290
     1
  9
$FINGERPRINTGUID
  2
{7F6EB4BD-8630-4EDC-94C9-00A47AF0B5F6}
  9
$VERSIONGUID
  2
{FAEB1C32-E019-11D5-929B-00C0DF256EC4}
  9
$EXTNAMES
290
     1
  9
$PSVPSCALE
 40
0.0
  9
$OLESTARTUP
290
     0
  0
ENDSEC
  0
SECTION
  2
CLASSES
  0
CLASS
  1
ACDBDICTIONARYWDFLT
  2
AcDbDictionaryWithDefault
  3
ObjectDBX Classes
 90
        0
280
     0
281
     0
  0
CLASS
  1
VISUALSTYLE
  2
AcDbVisualStyle
  3
ObjectDBX Classes
 90
     4095
280
     0
281
     0
  0
CLASS
  1
MATERIAL
  2
AcDbMaterial
  3
ObjectDBX Classes
 90
     1153
280
     0
281
     0
  0
CLASS
  1
ACDBPLACEHOLDER
  2
AcDbPlaceHolder
  3
ObjectDBX Classes
 90
        0
280
     0
281
     0
  0
CLASS
  1
LAYOUT
  2
AcDbLayout
  3
ObjectDBX Classes
 90
        0
280
     0
281
     0
  0
ENDSEC
  0
SECTION
  2
TABLES
  0
TABLE
  2
VPORT
  5
8
330
0
100
AcDbSymbolTable
 70
     1
  0
VPORT
  5
29
330
8
100
AcDbSymbolTableRecord
100
AcDbViewportTableRecord
  2
*Active
 70
     0
 10
0.0
 20
0.0
 11
1.0
 21
1.0
 12
-10.9585201692
 22
6.1776156431
 13
0.0
 23
0.0
 14
0.5
 24
0.5
 15
0.5
 25
0.5
 16
0.0
 26
0.0
 36
1.0
 17
0.0
 27
0.0
 37
0.0
 40
9.7670135784
 41
1.4478250351
 42
50.0
 43
0.0
 44
0.0
 50
0.0
 51
0.0
 71
     0
 72
   100
 73
     1
 74
     3
 75
     0
 76
     0
 77
     0
 78
     0
281
     0
 65
     1
110
0.0
120
0.0
130
0.0
111
1.0
121
0.0
131
0.0
112
0.0
122
1.0
132
0.0
 79
     0
146
0.0
  0
ENDTAB
  0
TABLE
  2
LTYPE
  5
5
330
0
100
AcDbSymbolTable
 70
     6
  0
LTYPE
  5
14
330
5
100
AcDbSymbolTableRecord
100
AcDbLinetypeTableRecord
  2
ByBlock
 70
     0
  3

 72
    65
 73
     0
 40
0.0
  0
LTYPE
  5
15
330
5
100
AcDbSymbolTableRecord
100
AcDbLinetypeTableRecord
  2
ByLayer
 70
     0
  3

 72
    65
 73
     0
 40
0.0
  0
LTYPE
  5
16
330
5
100
AcDbSymbolTableRecord
100
AcDbLinetypeTableRecord
  2
Continuous
 70
     0
  3
Solid line
 72
    65
 73
     0
 40
0.0
  0
LTYPE
  5
3F
330
5
100
AcDbSymbolTableRecord
100
AcDbLinetypeTableRecord
  2
HIDDEN
 70
     0
  3
Hidden __ __ __ __ __ __ __ __ __ __ __ __ __ __
 72
    65
 73
     2
 40
0.075
 49
0.05
 74
     0
 49
-0.025
 74
     0
  0
LTYPE
  5
40
330
5
100
AcDbSymbolTableRecord
100
AcDbLinetypeTableRecord
  2
PHANTOM
 70
     0
  3
Phantom ______  __  __  ______  __  __  ______
 72
    65
 73
     6
 40
0.5
 49
0.25
 74
     0
 49
-0.05
 74
     0
 49
0.05
 74
     0
 49
-0.05
 74
     0
 49
0.05
 74
     0
 49
-0.05
 74
     0
  0
LTYPE
  5
41
330
5
100
AcDbSymbolTableRecord
100
AcDbLinetypeTableRecord
  2
CENTER
 70
     0
  3
Center ____ _ ____ _ ____ _ ____ _ ____ _ ____
 72
    65
 73
     4
 40
0.4
 49
0.25
 74
     0
 49
-0.05
 74
     0
 49
0.05
 74
     0
 49
-0.05
 74
     0
  0
LTYPE
  5
42
330
5
100
AcDbSymbolTableRecord
100
AcDbLinetypeTableRecord
  2
CENTERX2
 70
     0
  3
Center (2x) ________  __  ________  __  _____
 72
    65
 73
     4
 40
0.8
 49
0.5
 74
     0
 49
-0.1
 74
     0
 49
0.1
 74
     0
 49
-0.1
 74
     0
  0
LTYPE
  5
43
330
5
100
AcDbSymbolTableRecord
100
AcDbLinetypeTableRecord
  2
DOT2
 70
     0
  3
Dot (.5x) ........................................
 72
    65
 73
     2
 40
0.025
 49
0.0
 74
     0
 49
-0.025
 74
     0
  0
ENDTAB
  0
TABLE
  2
LAYER
  5
2
330
0
100
AcDbSymbolTable
 70
     1
  0
LAYER
  5
10
330
2
100
AcDbSymbolTableRecord
100
AcDbLayerTableRecord
  2
0
 70
     0
 62
     7
  6
Continuous
370
    -3
390
F
  0
ENDTAB
  0
TABLE
  2
STYLE
  5
3
330
0
100
AcDbSymbolTable
 70
     1
  0
STYLE
  5
11
330
3
100
AcDbSymbolTableRecord
100
AcDbTextStyleTableRecord
  2
Standard
 70
     0
 40
0.0
 41
1.0
 50
0.0
 71
     0
 42
0.125
  3
txt
  4

  0
ENDTAB
  0
TABLE
  2
VIEW
  5
6
330
0
100
AcDbSymbolTable
 70
     0
  0
ENDTAB
  0
TABLE
  2
UCS
  5
7
330
0
100
AcDbSymbolTable
 70
     0
  0
ENDTAB
  0
TABLE
  2
APPID
  5
9
330
0
100
AcDbSymbolTable
 70
     1
  0
APPID
  5
12
330
9
100
AcDbSymbolTableRecord
100
AcDbRegAppTableRecord
  2
ACAD
 70
     0
  0
ENDTAB
  0
TABLE
  2
DIMSTYLE
  5
A
330
0
100
AcDbSymbolTable
 70
     1
100
AcDbDimStyleTable
  0
DIMSTYLE
105
27
330
A
100
AcDbSymbolTableRecord
100
AcDbDimStyleTableRecord
  2
Standard
 70
     0
178
     0
340
11
  0
ENDTAB
  0
TABLE
  2
BLOCK_RECORD
  5
1
330
0
100
AcDbSymbolTable
 70
     1
  0
BLOCK_RECORD
  5
1F
330
1
100
AcDbSymbolTableRecord
100
AcDbBlockTableRecord
  2
*Model_Space
340
22
  0
BLOCK_RECORD
  5
1B
330
1
100
AcDbSymbolTableRecord
100
AcDbBlockTableRecord
  2
*Paper_Space
340
1E
  0
BLOCK_RECORD
  5
23
330
1
100
AcDbSymbolTableRecord
100
AcDbBlockTableRecord
  2
*Paper_Space0
340
26
  0
ENDTAB
  0
ENDSEC
  0
SECTION
  2
BLOCKS
  0
BLOCK
  5
20
330
1F
100
AcDbEntity
  8
0
100
AcDbBlockBegin
  2
*Model_Space
 70
     0
 10
0.0
 20
0.0
 30
0.0
  3
*Model_Space
  1

  0
ENDBLK
  5
21
330
1F
100
AcDbEntity
  8
0
100
AcDbBlockEnd
  0
BLOCK
  5
1C
330
1B
100
AcDbEntity
 67
     1
  8
0
100
AcDbBlockBegin
  2
*Paper_Space
 70
     0
 10
0.0
 20
0.0
 30
0.0
  3
*Paper_Space
  1

  0
ENDBLK
  5
1D
330
1B
100
AcDbEntity
 67
     1
  8
0
100
AcDbBlockEnd
  0
BLOCK
  5
24
330
23
100
AcDbEntity
  8
0
100
AcDbBlockBegin
  2
*Paper_Space0
 70
     0
 10
0.0
 20
0.0
 30
0.0
  3
*Paper_Space0
  1

  0
ENDBLK
  5
25
330
23
100
AcDbEntity
  8
0
100
AcDbBlockEnd
  0
ENDSEC
  0
SECTION
  2
ENTITIES
  0
CIRCLE
  5
44
330
1F
100
AcDbEntity
  8
0
  6
Continuous
 62
     7
370
    15
100
AcDbCircle
 10
-4.2117861317
 20
1.5749586727
 30
0.0
 40
0.0847500000000003
  0
CIRCLE
  5
45
330
1F
100
AcDbEntity
  8
0
  6
Continuous
 62
     7
370
    15
100
AcDbCircle
 10
-17.7252853755
 20
6.0749586727
 30
0.0
 40
0.0847500000000032
  0
CIRCLE
  5
46
330
1F
100
AcDbEntity
  8
0
  6
Continuous
 62
     7
370
    15
100
AcDbCircle
 10
-8.6851824939
 20
1.5548658598
 30
0.0
 40
0.0847499999999979
  0
CIRCLE
  5
47
330
1F
100
AcDbEntity
  8
0
  6
Continuous
 62
     7
370
    15
100
AcDbCircle
 10
-13.1585788561
 20
10.0777552398
 30
0.0
 40
0.0847499999999961
  0
CIRCLE
  5
48
330
1F
100
AcDbEntity
  8
0
  6
Continuous
 62
     7
370
    15
100
AcDbCircle
 10
-4.5014077909
 20
10.5503918552
 30
0.0
 40
0.0847499999999979
  0
SPLINE
  5
4A
330
1F
100
AcDbEntity
  8
0
  6
Continuous
 62
     7
370
    15
100
AcDbSpline
210
0.0
220
0.0
230
1.0
 70
     8
 71
     3
 72
   143
 73
   139
 74
     0
 42
0.00000001
 43
0.00000001
 12
1.0
 22
0.0
 32
0.0
 13
1.0
 23
0.0
 33
0.0
 40
0.0
 40
0.0
 40
0.0
 40
0.0
 40
0.0049927088262742
 40
0.0099512258495995
 40
0.0148757204175752
 40
0.0197663654120732
 40
0.0246233373295498
 40
0.0294468163628691
 40
0.0342369864846242
 40
0.0389940355319435
 40
0.0437181552927684
 40
0.0484095415935753
 40
0.053068394388518
 40
0.0576949178499585
 40
0.0622893204603463
 40
0.0780322731752854
 40
0.093325367675802
 40
0.1090338695223215
 40
0.1243811735875906
 40
0.1565517290538311
 40
0.1869011056986965
 40
0.2190557819115379
 40
0.2493917716038711
 40
0.2812275774220918
 40
0.3118063211423226
 40
0.3297270989745819
 40
0.3475765022845264
 40
0.3608456562555706
 40
0.3742216343278113
 40
0.3820303657487178
 40
0.3899102617131746
 40
0.3937724744657988
 40
0.3977963284094267
 40
0.4017382369206104
 40
0.4056801458991025
 40
0.4135639594374417
 40
0.4175058666068958
 40
0.4214477737763498
 40
0.4253896809458039
 40
0.429331588115258
 40
0.433273495284712
 40
0.4372154024541661
 40
0.4411573096236202
 40
0.4450992167930743
 40
0.4490411239625283
 40
0.4529830311319824
 40
0.4569249383014365
 40
0.4608668454708906
 40
0.4648087526403447
 40
0.4687506598097987
 40
0.4726925669792529
 40
0.476634474148707
 40
0.4805763813181611
 40
0.4845182884876152
 40
0.4884601956570693
 40
0.4924021028265233
 40
0.4963440099959775
 40
0.5002859171654316
 40
0.5042278243348858
 40
0.5081697315043399
 40
0.5121116386737941
 40
0.5160535458432483
 40
0.5199954530127024
 40
0.5239373601821565
 40
0.5278792673516108
 40
0.531821174521065
 40
0.5357630816905191
 40
0.5397049888599732
 40
0.5436468960294274
 40
0.5475888031988815
 40
0.5515307103683357
 40
0.5554726175377899
 40
0.5594145247072441
 40
0.5633564318766981
 40
0.5672983390461523
 40
0.5712402462156064
 40
0.5751821533850606
 40
0.5791240605545147
 40
0.5830659677239689
 40
0.5870078748934231
 40
0.5909497820628772
 40
0.5948916892323313
 40
0.5988335964017854
 40
0.6027755035712394
 40
0.6067174107406935
 40
0.6106593179101476
 40
0.6146012250796018
 40
0.6185431322490559
 40
0.6224850394185099
 40
0.6264269465879639
 40
0.630368853757418
 40
0.634310760926872
 40
0.6382526680963261
 40
0.64219457526578
 40
0.6461364824352341
 40
0.6500783896046882
 40
0.6540202967741422
 40
0.6579622039435963
 40
0.6619041111130503
 40
0.6658460182825042
 40
0.6697879254519583
 40
0.6737298326214123
 40
0.6776717397908663
 40
0.6816136469603202
 40
0.6855555541297743
 40
0.6894974612992283
 40
0.6934393684686823
 40
0.6973812756381362
 40
0.7052650891764753
 40
0.7092069959454989
 40
0.7105074382384455
 40
0.711177177332982
 40
0.713139263650065
 40
0.7157485372004397
 40
0.7183516846557767
 40
0.7209644177419888
 40
0.7248767128865872
 40
0.7287957881413826
 40
0.7327269423540702
 40
0.7366470764206398
 40
0.7444633007922479
 40
0.7483787919461401
 40
0.7522907314168277
 40
0.756208497026272
 40
0.7601295549955339
 40
0.7620668944356199
 40
0.7629447210938742
 40
0.7640011100196284
 40
0.7653999902804476
 40
0.7678699435658525
 40
0.7756076125054777
 40
0.7833452814451031
 40
0.7988206184847386
 40
0.8142959555243742
 40
0.845246629603645
 40
0.8761973036829159
 40
0.938098651841458
 40
1.0
 40
1.0
 40
1.0
 40
1.0
 10
-13.99548091995832
 20
10.02498524819522
 30
0.0
 10
-14.01852840574398
 20
10.01833593451843
 30
0.0
 10
-14.06446554013316
 20
10.0050828439728
 30
0.0
 10
-14.13298855522003
 20
9.98476820584857
 30
0.0
 10
-14.20092966230349
 20
9.964220685576938
 30
0.0
 10
-14.26827870508024
 20
9.943404853415458
 30
0.0
 10
-14.33503837768585
 20
9.922330104093444
 30
0.0
 10
-14.40120796656757
 20
9.900993945430434
 30
0.0
 10
-14.46678766131089
 20
9.879397036643846
 30
0.0
 10
-14.53177741397152
 20
9.857539204197804
 30
0.0
 10
-14.5961772323057
 20
9.835420484286198
 30
0.0
 10
-14.65998713618278
 20
9.813040898242308
 30
0.0
 10
-14.72320704293014
 20
9.790400320575786
 30
0.0
 10
-14.78583726387286
 20
9.767499221297745
 30
0.0
 10
-14.89820006364398
 20
9.72554683238297
 30
0.0
 10
-15.05767276252433
 20
9.663259955116931
 30
0.0
 10
-15.26479012140687
 20
9.576366062052793
 30
0.0
 10
-15.4677495804164
 20
9.484658976586502
 30
0.0
 10
-15.74083353240971
 20
9.35154447536253
 30
0.0
 10
-16.06919365024956
 20
9.171556679977535
 30
0.0
 10
-16.45085769385038
 20
8.923271509850984
 30
0.0
 10
-16.8022029943302
 20
8.647216686313598
 30
0.0
 10
-17.12717460853481
 20
8.329985091888057
 30
0.0
 10
-17.40539529442084
 20
7.980060132557911
 30
0.0
 10
-17.59961187923156
 20
7.644659522357856
 30
0.0
 10
-17.72387002683641
 20
7.350647784156516
 30
0.0
 10
-17.7948196723159
 20
7.125578404145438
 30
0.0
 10
-17.84214305693302
 20
6.916947044112828
 30
0.0
 10
-17.86750074324074
 20
6.753222343769375
 30
0.0
 10
-17.88144027839482
 20
6.614249965553464
 30
0.0
 10
-17.88719298008489
 20
6.520467788406199
 30
0.0
 10
-17.88964253401545
 20
6.44475598914462
 30
0.0
 10
-17.89035049509707
 20
6.38792987137915
 30
0.0
 10
-17.89035501276736
 20
6.330719392251556
 30
0.0
 10
-17.89029705881416
 20
6.25496400718965
 30
0.0
 10
-17.89029635106372
 20
6.179208522298858
 30
0.0
 10
-17.89035607437306
 20
6.103453095258989
 30
0.0
 10
-17.89031595624806
 20
6.046636515508233
 30
0.0
 10
-17.89027800750073
 20
5.989819937522216
 30
0.0
 10
-17.89031629185186
 20
5.933003359063338
 30
0.0
 10
-17.89035473195729
 20
5.876186780731164
 30
0.0
 10
-17.89031631594705
 20
5.819370202365042
 30
0.0
 10
-17.89027791111948
 20
5.762553624008014
 30
0.0
 10
-17.89031631767703
 20
5.705737045648548
 30
0.0
 10
-17.89035472503745
 20
5.648920467289737
 30
0.0
 10
-17.89031631780131
 20
5.592103888930751
 30
0.0
 10
-17.89027791062281
 20
5.535287310571809
 30
0.0
 10
-17.89031631781033
 20
5.478470732212858
 30
0.0
 10
-17.89035472500198
 20
5.421654153853908
 30
0.0
 10
-17.89031631781104
 20
5.364837575494958
 30
0.0
 10
-17.89027791062039
 20
5.308020997136009
 30
0.0
 10
-17.89031631781107
 20
5.251204418777056
 30
0.0
 10
-17.89035472500177
 20
5.194387840418111
 30
0.0
 10
-17.89031631781095
 20
5.137571262059159
 30
0.0
 10
-17.89027791062008
 20
5.080754683700209
 30
0.0
 10
-17.89031631781063
 20
5.02393810534126
 30
0.0
 10
-17.89035472500112
 20
4.967121526982312
 30
0.0
 10
-17.89031631781007
 20
4.910304948623356
 30
0.0
 10
-17.89027791061897
 20
4.853488370264409
 30
0.0
 10
-17.89031631780926
 20
4.796671791905457
 30
0.0
 10
-17.89035472499949
 20
4.739855213546508
 30
0.0
 10
-17.89031631780822
 20
4.683038635187557
 30
0.0
 10
-17.89027791061691
 20
4.62622205682861
 30
0.0
 10
-17.890316317807
 20
4.569405478469656
 30
0.0
 10
-17.89035472499705
 20
4.512588900110709
 30
0.0
 10
-17.89031631780564
 20
4.455772321751756
 30
0.0
 10
-17.89027791061419
 20
4.398955743392806
 30
0.0
 10
-17.89031631780419
 20
4.342139165033855
 30
0.0
 10
-17.89035472499418
 20
4.285322586674904
 30
0.0
 10
-17.89031631780271
 20
4.228506008315954
 30
0.0
 10
-17.89027791061125
 20
4.171689429957004
 30
0.0
 10
-17.89031631780124
 20
4.114872851598054
 30
0.0
 10
-17.89035472499126
 20
4.058056273239103
 30
0.0
 10
-17.89031631779984
 20
4.001239694880152
 30
0.0
 10
-17.89027791060845
 20
3.944423116521205
 30
0.0
 10
-17.89031631779854
 20
3.887606538162251
 30
0.0
 10
-17.89035472498868
 20
3.830789959803304
 30
0.0
 10
-17.89031631779741
 20
3.773973381444351
 30
0.0
 10
-17.89027791060619
 20
3.717156803085403
 30
0.0
 10
-17.89031631779648
 20
3.660340224726454
 30
0.0
 10
-17.89035472498684
 20
3.603523646367501
 30
0.0
 10
-17.89031631779581
 20
3.546707068008554
 30
0.0
 10
-17.89027791060486
 20
3.489890489649603
 30
0.0
 10
-17.89031631779544
 20
3.433073911290653
 30
0.0
 10
-17.89035472498611
 20
3.376257332931704
 30
0.0
 10
-17.89031631779542
 20
3.319440754572752
 30
0.0
 10
-17.89027791060483
 20
3.262624176213804
 30
0.0
 10
-17.89031631779581
 20
3.205807597854855
 30
0.0
 10
-17.89035472498689
 20
3.148991019495905
 30
0.0
 10
-17.89031631779665
 20
3.092174441136956
 30
0.0
 10
-17.89027791060652
 20
3.035357862778009
 30
0.0
 10
-17.89031631779796
 20
2.978541284419058
 30
0.0
 10
-17.89035472498947
 20
2.921724706060112
 30
0.0
 10
-17.89031631779972
 20
2.864908127701161
 30
0.0
 10
-17.89027791060958
 20
2.808091549342211
 30
0.0
 10
-17.89031631780263
 20
2.751274970983267
 30
0.0
 10
-17.8903547249894
 20
2.69445839262431
 30
0.0
 10
-17.89031631781824
 20
2.637641814265385
 30
0.0
 10
-17.89027791055945
 20
2.580825235906351
 30
0.0
 10
-17.89031631800906
 20
2.524008657547715
 30
0.0
 10
-17.89035472423833
 20
2.467192079187606
 30
0.0
 10
-17.89031632064039
 20
2.410375500832991
 30
0.0
 10
-17.89027790004559
 20
2.353558922457862
 30
0.0
 10
-17.89031635726507
 20
2.2967423441593
 30
0.0
 10
-17.89035457774958
 20
2.239925765574986
 30
0.0
 10
-17.89031686735909
 20
2.183109188057117
 30
0.0
 10
-17.89027585967709
 20
2.12629260655921
 30
0.0
 10
-17.89034000948497
 20
2.050537188213271
 30
0.0
 10
-17.89031230861449
 20
1.97478166092164
 30
0.0
 10
-17.89031655621526
 20
1.911717280814454
 30
0.0
 10
-17.89031667257035
 20
1.88331252850757
 30
0.0
 10
-17.89028346985729
 20
1.86442033061952
 30
0.0
 10
-17.8895100933937
 20
1.83923768876961
 30
0.0
 10
-17.88590241792177
 20
1.804917426663106
 30
0.0
 10
-17.87914272423755
 20
1.767897373440494
 30
0.0
 10
-17.86791462821175
 20
1.725461229797683
 30
0.0
 10
-17.85043067942993
 20
1.67829591450306
 30
0.0
 10
-17.82458294200202
 20
1.627899624363461
 30
0.0
 10
-17.79307623091302
 20
1.580774123680125
 30
0.0
 10
-17.74405940891983
 20
1.523469730282264
 30
0.0
 10
-17.68536692232555
 20
1.475182553989878
 30
0.0
 10
-17.61983749226195
 20
1.438104688431433
 30
0.0
 10
-17.56764790846074
 20
1.416282100263162
 30
0.0
 10
-17.51327313336265
 20
1.400638063920352
 30
0.0
 10
-17.46681068830439
 20
1.393020756956094
 30
0.0
 10
-17.43452747467062
 20
1.390503676874082
 30
0.0
 10
-17.41593309020455
 20
1.389924746413277
 30
0.0
 10
-17.39991865716852
 20
1.389843026471063
 30
0.0
 10
-17.37625572421824
 20
1.389877643102839
 30
0.0
 10
-17.32049218197978
 20
1.389851224085685
 30
0.0
 10
-17.23427431504941
 20
1.38987015314602
 30
0.0
 10
-17.08557198617392
 20
1.38986320336256
 30
0.0
 10
-16.8996941814591
 20
1.389868300823853
 30
0.0
 10
-16.60228963938351
 20
1.389864811654158
 30
0.0
 10
-16.23053398156521
 20
1.389863087809273
 30
0.0
 10
-15.63572491800638
 20
1.389866739122483
 30
0.0
 10
-14.89221359232473
 20
1.389871805667273
 30
0.0
 10
-14.29740453077491
 20
1.389867841747568
 30
0.0
 10
-13.99999999999999
 20
1.389865859787716
 30
0.0
  0
SPLINE
  5
4B
330
1F
100
AcDbEntity
  8
0
  6
Continuous
 62
     7
370
    15
100
AcDbSpline
210
0.0
220
0.0
230
1.0
 70
     8
 71
     3
 72
    18
 73
    14
 74
     0
 42
0.00000001
 43
0.00000001
 12
1.0
 22
0.0
 32
0.0
 13
1.0
 23
0.0
 33
0.0
 40
0.0
 40
0.0
 40
0.0
 40
0.0
 40
0.2500000000000005
 40
0.2500000000000005
 40
0.500000000000001
 40
0.500000000000001
 40
0.7500000000000016
 40
0.7500000000000016
 40
0.8750000000000008
 40
0.8750000000000008
 40
0.9375000000000004
 40
0.9375000000000004
 40
1.0
 40
1.0
 40
1.0
 40
1.0
 10
-9.97860693136516
 20
10.75535303544044
 30
0.0
 10
-10.31858329992412
 20
10.72894111092941
 30
0.0
 10
-10.65765020184984
 20
10.69376360329571
 30
0.0
 10
-11.3339815298905
 20
10.60603604134147
 30
0.0
 10
-11.67080638396788
 20
10.55354283037822
 30
0.0
 10
-12.34176901678095
 20
10.43137679771846
 30
0.0
 10
-12.6752803626014
 20
10.36184226283905
 30
0.0
 10
-13.17257071919289
 20
10.24493973234736
 30
0.0
 10
-13.33784015290177
 20
10.20387164609784
 30
0.0
 10
-13.58500518380435
 20
10.13912676575252
 30
0.0
 10
-13.66727034488498
 20
10.11702136439082
 30
0.0
 10
-13.83155458420539
 20
10.07176421270912
 30
0.0
 10
-13.91354219271067
 20
10.04847865247458
 30
0.0
 10
-13.99548091995832
 20
10.02498524819522
 30
0.0
  0
SPLINE
  5
4F
330
1F
100
AcDbEntity
  8
0
  6
Continuous
 62
     7
370
    15
100
AcDbSpline
210
0.0
220
0.0
230
1.0
 70
     8
 71
     3
 72
    42
 73
    38
 74
     0
 42
0.00000001
 43
0.00000001
 12
1.0
 22
0.0
 32
0.0
 13
1.0
 23
0.0
 33
0.0
 40
0.0
 40
0.0
 40
0.0
 40
0.0
 40
0.0083841687309044
 40
0.0166799465628973
 40
0.0248909675412202
 40
0.0330209793686575
 40
0.0410738428507509
 40
0.0490535307736811
 40
0.0569641261730566
 40
0.0648098199560839
 40
0.0725949078451582
 40
0.0803237866178733
 40
0.0880009496267704
 40
0.0956309815917244
 40
0.1032185526685842
 40
0.1107684118093688
 40
0.1182853794416114
 40
0.1257743395070544
 40
0.1670828426890498
 40
0.2085783111016161
 40
0.251112038649708
 40
0.3257827284976357
 40
0.4084370237112294
 40
0.5013077184997755
 40
0.5322843774445553
 40
0.5643972611642021
 40
0.5976789903071094
 40
0.6321588682249899
 40
0.6678632483521114
 40
0.704815864387136
 40
0.7430381248637453
 40
0.7825493745604011
 40
0.8233671256226671
 40
0.8655072614021189
 40
0.9089842159617485
 40
0.9538111320344541
 40
1.0
 40
1.0
 40
1.0
 40
1.0
 10
-4.026693317542398
 20
10.00752728184249
 30
0.0
 10
-4.026733622511101
 20
10.01440884413391
 30
0.0
 10
-4.026813807529525
 20
10.02809941918962
 30
0.0
 10
-4.02746689508372
 20
10.0485208553327
 30
0.0
 10
-4.0285115124424
 20
10.06871612518959
 30
0.0
 10
-4.029984771992902
 20
10.08868522969854
 30
0.0
 10
-4.031876900719136
 20
10.10842816060608
 30
0.0
 10
-4.034190499888354
 20
10.1279449099059
 30
0.0
 10
-4.03692490283563
 20
10.14723546728283
 30
0.0
 10
-4.040080305778278
 20
10.16629982063071
 30
0.0
 10
-4.043656676251551
 20
10.18513795625145
 30
0.0
 10
-4.047654040126307
 20
10.20374985749729
 30
0.0
 10
-4.052072410195876
 20
10.22213551008613
 30
0.0
 10
-4.056911786816354
 20
10.24029488273849
 30
0.0
 10
-4.062172223802167
 20
10.25822799931645
 30
0.0
 10
-4.067853564922747
 20
10.27593467248351
 30
0.0
 10
-4.073956424041579
 20
10.29341549143758
 30
0.0
 10
-4.090300881630574
 20
10.3366507186662
 30
0.0
 10
-4.122395201237848
 20
10.40378130164579
 30
0.0
 10
-4.180028188607692
 20
10.4894169618602
 30
0.0
 10
-4.267547028594493
 20
10.5864212175925
 30
0.0
 10
-4.398265990757264
 20
10.68753262427808
 30
0.0
 10
-4.581601066773585
 20
10.78191452630455
 30
0.0
 10
-4.742385728835213
 20
10.83712112323317
 30
0.0
 10
-4.86611776752054
 20
10.86993688388535
 30
0.0
 10
-4.943217702696124
 20
10.88768037603043
 30
0.0
 10
-5.023640141878858
 20
10.90360780672371
 30
0.0
 10
-5.107392017015237
 20
10.91771937571416
 30
0.0
 10
-5.194472044496712
 20
10.93001550325894
 30
0.0
 10
-5.284881217596325
 20
10.94049646387698
 30
0.0
 10
-5.378619829307708
 20
10.94916228918351
 30
0.0
 10
-5.475688335156224
 20
10.95601370951401
 30
0.0
 10
-5.576087015153319
 20
10.96104840824719
 30
0.0
 10
-5.679816446122429
 20
10.96427579856279
 30
0.0
 10
-5.786875907193378
 20
10.96565922345462
 30
0.0
 10
-5.89726956221745
 20
10.96534202371972
 30
0.0
 10
-5.971954508039449
 20
10.96364907969155
 30
0.0
 10
-6.009855770309918
 20
10.96278994114744
 30
0.0
  0
SPLINE
  5
51
330
1F
100
AcDbEntity
  8
0
  6
Continuous
 62
     7
370
    15
100
AcDbSpline
210
0.0
220
0.0
230
1.0
 70
     8
 71
     3
 72
    27
 73
    23
 74
     0
 42
0.00000001
 43
0.00000001
 12
1.0
 22
0.0
 32
0.0
 13
1.0
 23
0.0
 33
0.0
 40
0.0
 40
0.0
 40
0.0
 40
0.0
 40
0.0253988249327913
 40
0.0506065585260066
 40
0.0756611637457629
 40
0.1006013028271885
 40
0.1254661719592643
 40
0.1502953238050553
 40
0.1751284816928236
 40
0.2000053497603264
 40
0.2249654235560634
 40
0.2500478055761337
 40
0.3752274101554223
 40
0.4996676361782574
 40
0.6241686148926877
 40
0.686706037078336
 40
0.749297466628155
 40
0.8117649019503081
 40
0.8743447644432881
 40
0.9162433622233626
 40
0.958068007805862
 40
1.0
 40
1.0
 40
1.0
 40
1.0
 10
-4.260296912498963
 20
1.389865859787717
 30
0.0
 10
-4.257192085633766
 20
1.389900222168853
 30
0.0
 10
-4.251005791469276
 20
1.389968688401312
 30
0.0
 10
-4.241770333524796
 20
1.390521016603985
 30
0.0
 10
-4.232618509963471
 20
1.391403493208802
 30
0.0
 10
-4.223550382259107
 20
1.392647707675157
 30
0.0
 10
-4.21456601372215
 20
1.394245280169741
 30
0.0
 10
-4.205665495039611
 20
1.396198452161305
 30
0.0
 10
-4.196848815184807
 20
1.398506585195556
 30
0.0
 10
-4.188116339620621
 20
1.401169930108638
 30
0.0
 10
-4.179467007807536
 20
1.404187985052433
 30
0.0
 10
-4.159539750859043
 20
1.41204151519316
 30
0.0
 10
-4.129667182345565
 20
1.427911021013552
 30
0.0
 10
-4.094147383475883
 20
1.457160478019182
 30
0.0
 10
-4.069791558277461
 20
1.486763685223125
 30
0.0
 10
-4.05404104289916
 20
1.512946284844329
 30
0.0
 10
-4.044206212718927
 20
1.533704397940395
 30
0.0
 10
-4.03644778403384
 20
1.555325957210485
 30
0.0
 10
-4.031469275918286
 20
1.575153664027154
 30
0.0
 10
-4.028554158874776
 20
1.592806798295159
 30
0.0
 10
-4.026984785076348
 20
1.608103147888765
 30
0.0
 10
-4.026790556364727
 20
1.618342977736139
 30
0.0
 10
-4.026693317542397
 20
1.623469454593704
 30
0.0
  0
CIRCLE
  5
52
330
1F
100
AcDbEntity
  8
0
  6
Continuous
 62
     7
370
    15
100
AcDbCircle
 10
-16.1863708087
 20
8.8966642646
 30
0.0
 40
0.0847499999999943
  0
CIRCLE
  5
53
330
1F
100
AcDbEntity
  8
0
  6
Continuous
 62
     7
370
    15
100
AcDbCircle
 10
-8.6851824939
 20
10.6797901415
 30
0.0
 40
0.0847499999999961
  0
CIRCLE
  5
54
330
1F
100
AcDbEntity
  8
0
  6
Continuous
 62
     7
370
    15
100
AcDbCircle
 10
-13.1585788561
 20
1.5548658598
 30
0.0
 40
0.0847499999999972
  0
CIRCLE
  5
55
330
1F
100
AcDbEntity
  8
0
  6
Continuous
 62
     7
370
    15
100
AcDbCircle
 10
-4.1916933175
 20
6.0749586727
 30
0.0
 40
0.0847499999999988
  0
CIRCLE
  5
56
330
1F
100
AcDbEntity
  8
0
  6
Continuous
 62
     7
370
    15
100
AcDbCircle
 10
-17.6319752183
 20
1.6482092269
 30
0.0
 40
0.0847500000000021
  0
LINE
  5
57
330
1F
100
AcDbEntity
  8
0
  6
Continuous
 62
     7
370
    15
100
AcDbLine
 10
-14.0
 20
1.3898658598
 30
0.0
 11
-4.2602969125
 21
1.3898658598
 31
0.0
  0
LINE
  5
58
330
1F
100
AcDbEntity
  8
0
  6
Continuous
 62
     7
370
    15
100
AcDbLine
 10
-9.9785298707
 20
10.755359022
 30
0.0
 11
-9.9786069314
 21
10.7553530354
 31
0.0
  0
LINE
  5
59
330
1F
100
AcDbEntity
  8
0
  6
Continuous
 62
     7
370
    15
100
AcDbLine
 10
-6.0098557703
 20
10.9627899411
 30
0.0
 11
-6.2598035708
 21
10.9556643651
 31
0.0
  0
LINE
  5
5A
330
1F
100
AcDbEntity
  8
0
  6
Continuous
 62
     7
370
    15
100
AcDbLine
 10
-4.0266933175
 20
1.6234694546
 30
0.0
 11
-4.0266933175
 21
10.0075272818
 31
0.0
  0
ARC
  5
5B
330
1F
100
AcDbEntity
  8
0
  6
Continuous
 62
     7
370
    15
100
AcDbCircle
 10
-3.8974612746
 20
-67.521664026
 30
0.0
 40
78.5128762212899
100
AcDbArc
 50
91.7242098508
 51
94.4421868983
  0
ENDSEC
  0
SECTION
  2
OBJECTS
  0
DICTIONARY
  5
C
330
0
100
AcDbDictionary
281
     1
  3
ACAD_GROUP
350
D
  3
ACAD_LAYOUT
350
1A
  3
ACAD_MLINESTYLE
350
17
  3
ACAD_PLOTSETTINGS
350
19
  3
ACAD_PLOTSTYLENAME
350
E
  0
DICTIONARY
  5
D
102
{ACAD_REACTORS
330
C
102
}
330
C
100
AcDbDictionary
281
     1
  0
DICTIONARY
  5
1A
102
{ACAD_REACTORS
330
C
102
}
330
C
100
AcDbDictionary
281
     1
  3
Layout1
350
1E
  3
Layout2
350
26
  3
Model
350
22
  0
DICTIONARY
  5
17
102
{ACAD_REACTORS
330
C
102
}
330
C
100
AcDbDictionary
281
     1
  3
Standard
350
18
  0
DICTIONARY
  5
19
102
{ACAD_REACTORS
330
C
102
}
330
C
100
AcDbDictionary
281
     1
  0
ACDBDICTIONARYWDFLT
  5
E
102
{ACAD_REACTORS
330
C
102
}
330
C
100
AcDbDictionary
281
     1
  3
Normal
350
F
100
AcDbDictionaryWithDefault
340
F
  0
LAYOUT
  5
1E
102
{ACAD_REACTORS
330
1A
102
}
330
1A
100
AcDbPlotSettings
  1

  2
none_device
  4

  6

 40
0.0
 41
0.0
 42
0.0
 43
0.0
 44
0.0
 45
0.0
 46
0.0
 47
0.0
 48
0.0
 49
0.0
140
0.0
141
0.0
142
1.0
143
1.0
 70
   688
 72
     0
 73
     0
 74
     5
  7

 75
    16
147
1.0
148
0.0
149
0.0
100
AcDbLayout
  1
Layout1
 70
     1
 71
     1
 10
0.0
 20
0.0
 11
12.0
 21
9.0
 12
0.0
 22
0.0
 32
0.0
 14
1.0000000000E+20
 24
1.0000000000E+20
 34
1.0000000000E+20
 15
-1.0000000000E+20
 25
-1.0000000000E+20
 35
-1.0000000000E+20
146
0.0
 13
0.0
 23
0.0
 33
0.0
 16
1.0
 26
0.0
 36
0.0
 17
0.0
 27
1.0
 37
0.0
 76
     0
330
1B
  0
LAYOUT
  5
26
102
{ACAD_REACTORS
330
1A
102
}
330
1A
100
AcDbPlotSettings
  1

  2
none_device
  4

  6

 40
0.0
 41
0.0
 42
0.0
 43
0.0
 44
0.0
 45
0.0
 46
0.0
 47
0.0
 48
0.0
 49
0.0
140
0.0
141
0.0
142
1.0
143
1.0
 70
   688
 72
     0
 73
     0
 74
     5
  7

 75
    16
147
1.0
148
0.0
149
0.0
100
AcDbLayout
  1
Layout2
 70
     1
 71
     2
 10
0.0
 20
0.0
 11
0.0
 21
0.0
 12
0.0
 22
0.0
 32
0.0
 14
0.0
 24
0.0
 34
0.0
 15
0.0
 25
0.0
 35
0.0
146
0.0
 13
0.0
 23
0.0
 33
0.0
 16
1.0
 26
0.0
 36
0.0
 17
0.0
 27
1.0
 37
0.0
 76
     0
330
23
  0
LAYOUT
  5
22
102
{ACAD_REACTORS
330
1A
102
}
330
1A
100
AcDbPlotSettings
  1

  2
none_device
  4
ANSI_A_(11.00_x_8.50_Inches)
  6

 40
6.35
 41
19.05
 42
6.35000508
 43
19.05000254
 44
279.4
 45
215.9
 46
351.9931123847
 47
-34.3550672977
 48
0.0
 49
0.0
140
0.0
141
0.0
142
0.7855072143
143
1.0
 70
  1696
 72
     0
 73
     0
 74
     0
  7

 75
     0
147
0.5913241897
148
0.0
149
0.0
100
AcDbLayout
  1
Model
 70
     1
 71
     0
 10
0.0
 20
0.0
 11
12.0
 21
9.0
 12
0.0
 22
0.0
 32
0.0
 14
-17.8903470208
 24
1.389863889
 34
0.0
 15
-4.0266933175
 25
10.9653673972
 35
0.0
146
0.0
 13
0.0
 23
0.0
 33
0.0
 16
1.0
 26
0.0
 36
0.0
 17
0.0
 27
1.0
 37
0.0
 76
     0
330
1F
331
29
  0
MLINESTYLE
  5
18
102
{ACAD_REACTORS
330
17
102
}
330
17
100
AcDbMlineStyle
  2
Standard
 70
     0
  3

 62
   256
 51
90.0
 52
90.0
 71
     2
 49
0.5
 62
   256
  6
BYLAYER
 49
-0.5
 62
   256
  6
BYLAYER
  0
ACDBPLACEHOLDER
  5
F
102
{ACAD_REACTORS
330
E
102
}
330
E
  0
ENDSEC
  0
EOF
