  0
SECTION
  2
HEADER
  9
$ACADVER
  1
AC1015
  9
$ACADMAINTVER
 70
     6
  9
$DWGCODEPAGE
  3
ANSI_1252
  9
$INSBASE
 10
0.0
 20
0.0
 30
0.0
  9
$EXTMIN
 10
-17.8102310851
 20
1.4922277982
 30
0.0
  9
$EXTMAX
 10
3.5972185144
 20
10.9005731798
 30
0.0
  9
$LIMMIN
 10
0.0
 20
0.0
  9
$LIMMAX
 10
12.0
 20
9.0
  9
$ORTHOMODE
 70
     0
  9
$REGENMODE
 70
     1
  9
$FILLMODE
 70
     1
  9
$QTEXTMODE
 70
     0
  9
$MIRRTEXT
 70
     1
  9
$LTSCALE
 40
1.0
  9
$ATTMODE
 70
     1
  9
$TEXTSIZE
 40
0.125
  9
$TRACEWID
 40
0.05
  9
$TEXTSTYLE
  7
Standard
  9
$CLAYER
  8
0
  9
$CELTYPE
  6
ByLayer
  9
$CECOLOR
 62
   256
  9
$CELTSCALE
 40
1.0
  9
$DISPSILH
 70
     0
  9
$DIMSCALE
 40
1.0
  9
$DIMASZ
 40
0.13
  9
$DIMEXO
 40
0.05
  9
$DIMDLI
 40
0.38
  9
$DIMRND
 40
0.0
  9
$DIMDLE
 40
0.0
  9
$DIMEXE
 40
0.125
  9
$DIMTP
 40
0.0
  9
$DIMTM
 40
0.0
  9
$DIMTXT
 40
0.125
  9
$DIMCEN
 40
0.09
  9
$DIMTSZ
 40
0.0
  9
$DIMTOL
 70
     0
  9
$DIMLIM
 70
     0
  9
$DIMTIH
 70
     1
  9
$DIMTOH
 70
     1
  9
$DIMSE1
 70
     0
  9
$DIMSE2
 70
     0
  9
$DIMTAD
 70
     0
  9
$DIMZIN
 70
     0
  9
$DIMBLK
  1

  9
$DIMASO
 70
     1
  9
$DIMSHO
 70
     1
  9
$DIMPOST
  1

  9
$DIMAPOST
  1

  9
$DIMALT
 70
     0
  9
$DIMALTD
 70
     2
  9
$DIMALTF
 40
25.4
  9
$DIMLFAC
 40
1.0
  9
$DIMTOFL
 70
     0
  9
$DIMTVP
 40
0.0
  9
$DIMTIX
 70
     0
  9
$DIMSOXD
 70
     0
  9
$DIMSAH
 70
     0
  9
$DIMBLK1
  1

  9
$DIMBLK2
  1

  9
$DIMSTYLE
  2
Standard
  9
$DIMCLRD
 70
     0
  9
$DIMCLRE
 70
     0
  9
$DIMCLRT
 70
     0
  9
$DIMTFAC
 40
1.0
  9
$DIMGAP
 40
0.06
  9
$DIMJUST
 70
     0
  9
$DIMSD1
 70
     0
  9
$DIMSD2
 70
     0
  9
$DIMTOLJ
 70
     1
  9
$DIMTZIN
 70
     0
  9
$DIMALTZ
 70
     0
  9
$DIMALTTZ
 70
     0
  9
$DIMUPT
 70
     0
  9
$DIMDEC
 70
     3
  9
$DIMTDEC
 70
     3
  9
$DIMALTU
 70
     2
  9
$DIMALTTD
 70
     2
  9
$DIMTXSTY
  7
Standard
  9
$DIMAUNIT
 70
     0
  9
$DIMADEC
 70
     2
  9
$DIMALTRND
 40
0.0
  9
$DIMAZIN
 70
     0
  9
$DIMDSEP
 70
    46
  9
$DIMATFIT
 70
     3
  9
$DIMFRAC
 70
     0
  9
$DIMLDRBLK
  1

  9
$DIMLUNIT
 70
     2
  9
$DIMLWD
 70
    -2
  9
$DIMLWE
 70
    -2
  9
$DIMTMOVE
 70
     0
  9
$LUNITS
 70
     2
  9
$LUPREC
 70
     3
  9
$SKETCHINC
 40
0.1
  9
$FILLETRAD
 40
0.5
  9
$AUNITS
 70
     0
  9
$AUPREC
 70
     2
  9
$MENU
  1
.
  9
$ELEVATION
 40
0.0
  9
$PELEVATION
 40
0.0
  9
$THICKNESS
 40
0.0
  9
$LIMCHECK
 70
     0
  9
$CHAMFERA
 40
0.5
  9
$CHAMFERB
 40
0.5
  9
$CHAMFERC
 40
1.0
  9
$CHAMFERD
 40
0.0
  9
$SKPOLY
 70
     0
  9
$TDCREATE
 40
2456055.611253345
  9
$TDUCREATE
 40
2456055.777920011
  9
$TDUPDATE
 40
2456055.611280833
  9
$TDUUPDATE
 40
2456055.7779475
  9
$TDINDWG
 40
0.0000000116
  9
$TDUSRTIMER
 40
0.0000000116
  9
$USRTIMER
 70
     1
  9
$ANGBASE
 50
0.0
  9
$ANGDIR
 70
     0
  9
$PDMODE
 70
     0
  9
$PDSIZE
 40
-1.0
  9
$PLINEWID
 40
0.0
  9
$SPLFRAME
 70
     0
  9
$SPLINETYPE
 70
     6
  9
$SPLINESEGS
 70
     8
  9
$HANDSEED
  5
5F
  9
$SURFTAB1
 70
     6
  9
$SURFTAB2
 70
     6
  9
$SURFTYPE
 70
     6
  9
$SURFU
 70
     6
  9
$SURFV
 70
     6
  9
$UCSBASE
  2

  9
$UCSNAME
  2

  9
$UCSORG
 10
0.0
 20
0.0
 30
0.0
  9
$UCSXDIR
 10
1.0
 20
0.0
 30
0.0
  9
$UCSYDIR
 10
0.0
 20
1.0
 30
0.0
  9
$UCSORTHOREF
  2

  9
$UCSORTHOVIEW
 70
     0
  9
$UCSORGTOP
 10
0.0
 20
0.0
 30
0.0
  9
$UCSORGBOTTOM
 10
0.0
 20
0.0
 30
0.0
  9
$UCSORGLEFT
 10
0.0
 20
0.0
 30
0.0
  9
$UCSORGRIGHT
 10
0.0
 20
0.0
 30
0.0
  9
$UCSORGFRONT
 10
0.0
 20
0.0
 30
0.0
  9
$UCSORGBACK
 10
0.0
 20
0.0
 30
0.0
  9
$PUCSBASE
  2

  9
$PUCSNAME
  2

  9
$PUCSORG
 10
0.0
 20
0.0
 30
0.0
  9
$PUCSXDIR
 10
1.0
 20
0.0
 30
0.0
  9
$PUCSYDIR
 10
0.0
 20
1.0
 30
0.0
  9
$PUCSORTHOREF
  2

  9
$PUCSORTHOVIEW
 70
     0
  9
$PUCSORGTOP
 10
0.0
 20
0.0
 30
0.0
  9
$PUCSORGBOTTOM
 10
0.0
 20
0.0
 30
0.0
  9
$PUCSORGLEFT
 10
0.0
 20
0.0
 30
0.0
  9
$PUCSORGRIGHT
 10
0.0
 20
0.0
 30
0.0
  9
$PUCSORGFRONT
 10
0.0
 20
0.0
 30
0.0
  9
$PUCSORGBACK
 10
0.0
 20
0.0
 30
0.0
  9
$USERI1
 70
     0
  9
$USERI2
 70
     0
  9
$USERI3
 70
     0
  9
$USERI4
 70
     0
  9
$USERI5
 70
     0
  9
$USERR1
 40
0.0
  9
$USERR2
 40
0.0
  9
$USERR3
 40
0.0
  9
$USERR4
 40
0.0
  9
$USERR5
 40
0.0
  9
$WORLDVIEW
 70
     1
  9
$SHADEDGE
 70
     3
  9
$SHADEDIF
 70
    70
  9
$TILEMODE
 70
     1
  9
$MAXACTVP
 70
    64
  9
$PINSBASE
 10
0.0
 20
0.0
 30
0.0
  9
$PLIMCHECK
 70
     0
  9
$PEXTMIN
 10
1.0000000000E+20
 20
1.0000000000E+20
 30
1.0000000000E+20
  9
$PEXTMAX
 10
-1.0000000000E+20
 20
-1.0000000000E+20
 30
-1.0000000000E+20
  9
$PLIMMIN
 10
0.0
 20
0.0
  9
$PLIMMAX
 10
12.0
 20
9.0
  9
$UNITMODE
 70
     0
  9
$VISRETAIN
 70
     1
  9
$PLINEGEN
 70
     0
  9
$PSLTSCALE
 70
     1
  9
$TREEDEPTH
 70
  3020
  9
$CMLSTYLE
  2
Standard
  9
$CMLJUST
 70
     0
  9
$CMLSCALE
 40
1.0
  9
$PROXYGRAPHICS
 70
     1
  9
$MEASUREMENT
 70
     0
  9
$CELWEIGHT
370
    -1
  9
$ENDCAPS
280
     0
  9
$JOINSTYLE
280
     0
  9
$LWDISPLAY
290
     1
  9
$INSUNITS
 70
     1
  9
$HYPERLINKBASE
  1

  9
$STYLESHEET
  1

  9
$XEDIT
290
     1
  9
$CEPSNTYPE
380
     0
  9
$PSTYLEMODE
290
     1
  9
$FINGERPRINTGUID
  2
{A55C650E-3E49-45DE-9912-99524573349D}
  9
$VERSIONGUID
  2
{FAEB1C32-E019-11D5-929B-00C0DF256EC4}
  9
$EXTNAMES
290
     1
  9
$PSVPSCALE
 40
0.0
  9
$OLESTARTUP
290
     0
  0
ENDSEC
  0
SECTION
  2
CLASSES
  0
CLASS
  1
ACDBDICTIONARYWDFLT
  2
AcDbDictionaryWithDefault
  3
ObjectDBX Classes
 90
        0
280
     0
281
     0
  0
CLASS
  1
VISUALSTYLE
  2
AcDbVisualStyle
  3
ObjectDBX Classes
 90
     4095
280
     0
281
     0
  0
CLASS
  1
MATERIAL
  2
AcDbMaterial
  3
ObjectDBX Classes
 90
     1153
280
     0
281
     0
  0
CLASS
  1
ACDBPLACEHOLDER
  2
AcDbPlaceHolder
  3
ObjectDBX Classes
 90
        0
280
     0
281
     0
  0
CLASS
  1
LAYOUT
  2
AcDbLayout
  3
ObjectDBX Classes
 90
        0
280
     0
281
     0
  0
ENDSEC
  0
SECTION
  2
TABLES
  0
TABLE
  2
VPORT
  5
8
330
0
100
AcDbSymbolTable
 70
     1
  0
VPORT
  5
29
330
8
100
AcDbSymbolTableRecord
100
AcDbViewportTableRecord
  2
*Active
 70
     0
 10
0.0
 20
0.0
 11
1.0
 21
1.0
 12
-7.1065062854
 22
6.196400489
 13
0.0
 23
0.0
 14
0.5
 24
0.5
 15
0.5
 25
0.5
 16
0.0
 26
0.0
 36
1.0
 17
0.0
 27
0.0
 37
0.0
 40
9.5965122893
 41
2.2753681685
 42
50.0
 43
0.0
 44
0.0
 50
0.0
 51
0.0
 71
     0
 72
   100
 73
     1
 74
     3
 75
     0
 76
     0
 77
     0
 78
     0
281
     0
 65
     1
110
0.0
120
0.0
130
0.0
111
1.0
121
0.0
131
0.0
112
0.0
122
1.0
132
0.0
 79
     0
146
0.0
  0
ENDTAB
  0
TABLE
  2
LTYPE
  5
5
330
0
100
AcDbSymbolTable
 70
     6
  0
LTYPE
  5
14
330
5
100
AcDbSymbolTableRecord
100
AcDbLinetypeTableRecord
  2
ByBlock
 70
     0
  3

 72
    65
 73
     0
 40
0.0
  0
LTYPE
  5
15
330
5
100
AcDbSymbolTableRecord
100
AcDbLinetypeTableRecord
  2
ByLayer
 70
     0
  3

 72
    65
 73
     0
 40
0.0
  0
LTYPE
  5
16
330
5
100
AcDbSymbolTableRecord
100
AcDbLinetypeTableRecord
  2
Continuous
 70
     0
  3
Solid line
 72
    65
 73
     0
 40
0.0
  0
LTYPE
  5
3F
330
5
100
AcDbSymbolTableRecord
100
AcDbLinetypeTableRecord
  2
HIDDEN
 70
     0
  3
Hidden __ __ __ __ __ __ __ __ __ __ __ __ __ __
 72
    65
 73
     2
 40
0.075
 49
0.05
 74
     0
 49
-0.025
 74
     0
  0
LTYPE
  5
40
330
5
100
AcDbSymbolTableRecord
100
AcDbLinetypeTableRecord
  2
PHANTOM
 70
     0
  3
Phantom ______  __  __  ______  __  __  ______
 72
    65
 73
     6
 40
0.5
 49
0.25
 74
     0
 49
-0.05
 74
     0
 49
0.05
 74
     0
 49
-0.05
 74
     0
 49
0.05
 74
     0
 49
-0.05
 74
     0
  0
LTYPE
  5
41
330
5
100
AcDbSymbolTableRecord
100
AcDbLinetypeTableRecord
  2
CENTER
 70
     0
  3
Center ____ _ ____ _ ____ _ ____ _ ____ _ ____
 72
    65
 73
     4
 40
0.4
 49
0.25
 74
     0
 49
-0.05
 74
     0
 49
0.05
 74
     0
 49
-0.05
 74
     0
  0
LTYPE
  5
42
330
5
100
AcDbSymbolTableRecord
100
AcDbLinetypeTableRecord
  2
CENTERX2
 70
     0
  3
Center (2x) ________  __  ________  __  _____
 72
    65
 73
     4
 40
0.8
 49
0.5
 74
     0
 49
-0.1
 74
     0
 49
0.1
 74
     0
 49
-0.1
 74
     0
  0
LTYPE
  5
43
330
5
100
AcDbSymbolTableRecord
100
AcDbLinetypeTableRecord
  2
DOT2
 70
     0
  3
Dot (.5x) ........................................
 72
    65
 73
     2
 40
0.025
 49
0.0
 74
     0
 49
-0.025
 74
     0
  0
ENDTAB
  0
TABLE
  2
LAYER
  5
2
330
0
100
AcDbSymbolTable
 70
     1
  0
LAYER
  5
10
330
2
100
AcDbSymbolTableRecord
100
AcDbLayerTableRecord
  2
0
 70
     0
 62
     7
  6
Continuous
370
    -3
390
F
  0
ENDTAB
  0
TABLE
  2
STYLE
  5
3
330
0
100
AcDbSymbolTable
 70
     1
  0
STYLE
  5
11
330
3
100
AcDbSymbolTableRecord
100
AcDbTextStyleTableRecord
  2
Standard
 70
     0
 40
0.0
 41
1.0
 50
0.0
 71
     0
 42
0.125
  3
txt
  4

  0
ENDTAB
  0
TABLE
  2
VIEW
  5
6
330
0
100
AcDbSymbolTable
 70
     0
  0
ENDTAB
  0
TABLE
  2
UCS
  5
7
330
0
100
AcDbSymbolTable
 70
     0
  0
ENDTAB
  0
TABLE
  2
APPID
  5
9
330
0
100
AcDbSymbolTable
 70
     1
  0
APPID
  5
12
330
9
100
AcDbSymbolTableRecord
100
AcDbRegAppTableRecord
  2
ACAD
 70
     0
  0
ENDTAB
  0
TABLE
  2
DIMSTYLE
  5
A
330
0
100
AcDbSymbolTable
 70
     1
100
AcDbDimStyleTable
  0
DIMSTYLE
105
27
330
A
100
AcDbSymbolTableRecord
100
AcDbDimStyleTableRecord
  2
Standard
 70
     0
178
     0
340
11
  0
ENDTAB
  0
TABLE
  2
BLOCK_RECORD
  5
1
330
0
100
AcDbSymbolTable
 70
     1
  0
BLOCK_RECORD
  5
1F
330
1
100
AcDbSymbolTableRecord
100
AcDbBlockTableRecord
  2
*Model_Space
340
22
  0
BLOCK_RECORD
  5
1B
330
1
100
AcDbSymbolTableRecord
100
AcDbBlockTableRecord
  2
*Paper_Space
340
1E
  0
BLOCK_RECORD
  5
23
330
1
100
AcDbSymbolTableRecord
100
AcDbBlockTableRecord
  2
*Paper_Space0
340
26
  0
ENDTAB
  0
ENDSEC
  0
SECTION
  2
BLOCKS
  0
BLOCK
  5
20
330
1F
100
AcDbEntity
  8
0
100
AcDbBlockBegin
  2
*Model_Space
 70
     0
 10
0.0
 20
0.0
 30
0.0
  3
*Model_Space
  1

  0
ENDBLK
  5
21
330
1F
100
AcDbEntity
  8
0
100
AcDbBlockEnd
  0
BLOCK
  5
1C
330
1B
100
AcDbEntity
 67
     1
  8
0
100
AcDbBlockBegin
  2
*Paper_Space
 70
     0
 10
0.0
 20
0.0
 30
0.0
  3
*Paper_Space
  1

  0
ENDBLK
  5
1D
330
1B
100
AcDbEntity
 67
     1
  8
0
100
AcDbBlockEnd
  0
BLOCK
  5
24
330
23
100
AcDbEntity
  8
0
100
AcDbBlockBegin
  2
*Paper_Space0
 70
     0
 10
0.0
 20
0.0
 30
0.0
  3
*Paper_Space0
  1

  0
ENDBLK
  5
25
330
23
100
AcDbEntity
  8
0
100
AcDbBlockEnd
  0
ENDSEC
  0
SECTION
  2
ENTITIES
  0
LWPOLYLINE
  5
44
330
1F
100
AcDbEntity
  8
0
  6
Continuous
 62
     7
370
    15
100
AcDbPolyline
 90
        5
 70
   128
 43
0.0
 10
-1.0000883854
 20
10.898486388
 10
-1.1600884899
 20
10.8985891805
 10
-1.8000888984
 20
10.8990150196
 10
-2.8476157282
 20
10.8997626616
 10
-3.8951425151
 20
10.9005731798
  0
SPLINE
  5
48
330
1F
100
AcDbEntity
  8
0
  6
Continuous
 62
     7
370
    15
100
AcDbSpline
210
0.0
220
0.0
230
1.0
 70
     8
 71
     3
 72
    30
 73
    26
 74
     0
 42
0.00000001
 43
0.00000001
 12
1.0
 22
0.0
 32
0.0
 13
1.0
 23
0.0
 33
0.0
 40
0.0
 40
0.0
 40
0.0
 40
0.0
 40
0.1249999999999948
 40
0.1249999999999948
 40
0.1874999999999958
 40
0.1874999999999958
 40
0.2499999999999967
 40
0.2499999999999967
 40
0.3124999999999977
 40
0.3124999999999977
 40
0.3749999999999986
 40
0.3749999999999986
 40
0.5000000000000014
 40
0.5000000000000014
 40
0.5624999999999999
 40
0.5624999999999999
 40
0.6249999999999982
 40
0.6249999999999982
 40
0.7499999999999988
 40
0.7499999999999988
 40
0.8124999999999991
 40
0.8124999999999991
 40
0.8749999999999994
 40
0.8749999999999994
 40
1.0
 40
1.0
 40
1.0
 40
1.0
 10
3.597218514393434
 20
10.29574500012246
 30
0.0
 10
3.597218514393434
 20
10.33573226048522
 30
0.0
 10
3.593303168712215
 20
10.37517827207113
 30
0.0
 10
3.581638745333886
 20
10.43354669837831
 30
0.0
 10
3.576760678390582
 20
10.45294712641348
 30
0.0
 10
3.565096680871491
 20
10.49108256435147
 30
0.0
 10
3.55834326176353
 20
10.50974528336515
 30
0.0
 10
3.543052476266647
 20
10.54628660742074
 30
0.0
 10
3.534514611147514
 20
10.56416499325139
 30
0.0
 10
3.51560915795138
 20
10.59911753075675
 30
0.0
 10
3.505183810008081
 20
10.6162667789928
 30
0.0
 10
3.471730147224091
 20
10.66560271569255
 30
0.0
 10
3.446454280031814
 20
10.69587765860296
 30
0.0
 10
3.404172368119167
 20
10.73744750542092
 30
0.0
 10
3.389331756537454
 20
10.7506772475862
 30
0.0
 10
3.358198017008757
 20
10.77573584657639
 30
0.0
 10
3.342133289590548
 20
10.78738395029102
 30
0.0
 10
3.292521430930406
 20
10.81981900912769
 30
0.0
 10
3.257554582542998
 20
10.83809309988308
 30
0.0
 10
3.202244868451598
 20
10.86044309499761
 30
0.0
 10
3.183306196577677
 20
10.86704139953382
 30
0.0
 10
3.145298203669237
 20
10.8782431673551
 30
0.0
 10
3.126127364849476
 20
10.88289224424495
 30
0.0
 10
3.068132133405922
 20
10.89408566889195
 30
0.0
 10
3.028825483248697
 20
10.89787882030473
 30
0.0
 10
2.988853931130489
 20
10.89787882030473
 30
0.0
  0
SPLINE
  5
4A
330
1F
100
AcDbEntity
  8
0
  6
Continuous
 62
     7
370
    15
100
AcDbSpline
210
0.0
220
0.0
230
1.0
 70
     8
 71
     3
 72
    20
 73
    16
 74
     0
 42
0.00000001
 43
0.00000001
 12
1.0
 22
0.0
 32
0.0
 13
1.0
 23
0.0
 33
0.0
 40
0.0
 40
0.0
 40
0.0
 40
0.0
 40
0.125
 40
0.125
 40
0.25
 40
0.25
 40
0.375
 40
0.375
 40
0.5
 40
0.5
 40
0.625
 40
0.625
 40
0.75
 40
0.75
 40
1.0
 40
1.0
 40
1.0
 40
1.0
 10
3.489714724384565
 20
1.493269761392559
 30
0.0
 10
3.496829051647241
 20
1.493309064079723
 30
0.0
 10
3.503831913111365
 20
1.493986479629505
 30
0.0
 10
3.517596075289067
 20
1.496724183538738
 30
0.0
 10
3.524423087079495
 20
1.498815318638674
 30
0.0
 10
3.537495683806346
 20
1.504209087199349
 30
0.0
 10
3.543701471736461
 20
1.507490218352096
 30
0.0
 10
3.55541081939333
 20
1.515293817057865
 30
0.0
 10
3.560950729785806
 20
1.519869620720586
 30
0.0
 10
3.570891754284817
 20
1.529848835651914
 30
0.0
 10
3.575349199483294
 20
1.535281313880498
 30
0.0
 10
3.583171961450409
 20
1.547088977046183
 30
0.0
 10
3.586485997276026
 20
1.553415471984346
 30
0.0
 10
3.594452181902813
 20
1.572945736161625
 30
0.0
 10
3.597218514393437
 20
1.587117588062611
 30
0.0
 10
3.597218514393437
 20
1.601369081016684
 30
0.0
  0
SPLINE
  5
4B
330
1F
100
AcDbEntity
  8
0
  6
Continuous
 62
     7
370
    15
100
AcDbSpline
210
0.0
220
0.0
230
1.0
 70
     8
 71
     3
 72
    10
 73
     6
 74
     0
 42
0.00000001
 43
0.00000001
 12
1.0
 22
0.0
 32
0.0
 13
1.0
 23
0.0
 33
0.0
 40
0.0
 40
0.0
 40
0.0
 40
0.0
 40
0.5
 40
0.5
 40
1.0
 40
1.0
 40
1.0
 40
1.0
 10
2.572662230364618
 20
1.493359879593187
 30
0.0
 10
2.725505178125223
 20
1.493253696801665
 30
0.0
 10
2.878346634370922
 20
1.4924538431593
 30
0.0
 10
3.184032320319902
 20
1.492001753158054
 30
0.0
 10
3.336874185434716
 20
1.492425402724949
 30
0.0
 10
3.48971472438456
 20
1.493269761392559
 30
0.0
  0
SPLINE
  5
4D
330
1F
100
AcDbEntity
  8
0
  6
Continuous
 62
     7
370
    15
100
AcDbSpline
210
0.0
220
0.0
230
1.0
 70
     8
 71
     3
 72
   101
 73
    97
 74
     0
 42
0.00000001
 43
0.00000001
 12
1.0
 22
0.0
 32
0.0
 13
1.0
 23
0.0
 33
0.0
 40
0.0
 40
0.0
 40
0.0
 40
0.0
 40
0.0312500000000032
 40
0.0312500000000032
 40
0.0625000000000063
 40
0.0625000000000063
 40
0.1250000000000132
 40
0.1250000000000132
 40
0.1562500000000169
 40
0.1562500000000169
 40
0.1718750000000185
 40
0.1718750000000185
 40
0.1875000000000202
 40
0.1875000000000202
 40
0.2187500000000231
 40
0.2187500000000231
 40
0.2343750000000243
 40
0.2343750000000243
 40
0.2500000000000256
 40
0.2500000000000256
 40
0.265625000000027
 40
0.265625000000027
 40
0.2734375000000275
 40
0.2734375000000275
 40
0.281250000000028
 40
0.281250000000028
 40
0.3125000000000304
 40
0.3125000000000304
 40
0.3281250000000314
 40
0.3281250000000314
 40
0.3359375000000319
 40
0.3359375000000319
 40
0.3437500000000324
 40
0.3437500000000324
 40
0.3750000000000341
 40
0.3750000000000341
 40
0.390625000000035
 40
0.390625000000035
 40
0.3984375000000355
 40
0.3984375000000355
 40
0.4062500000000359
 40
0.4062500000000359
 40
0.437500000000037
 40
0.437500000000037
 40
0.4687500000000381
 40
0.4687500000000381
 40
0.5000000000000392
 40
0.5000000000000392
 40
0.6250000000000437
 40
0.6250000000000437
 40
0.687500000000046
 40
0.687500000000046
 40
0.7031250000000465
 40
0.7031250000000465
 40
0.7109375000000467
 40
0.714843750000047
 40
0.714843750000047
 40
0.7167968750000471
 40
0.7167968750000471
 40
0.7187500000000471
 40
0.7187500000000471
 40
0.7226562500000474
 40
0.7226562500000474
 40
0.7246093750000475
 40
0.7246093750000475
 40
0.7265625000000476
 40
0.7265625000000476
 40
0.7304687500000476
 40
0.7304687500000476
 40
0.7324218750000476
 40
0.7324218750000476
 40
0.7343750000000476
 40
0.7343750000000476
 40
0.7382812500000473
 40
0.7382812500000473
 40
0.7421875000000471
 40
0.7421875000000471
 40
0.7500000000000461
 40
0.7500000000000461
 40
0.7539062500000459
 40
0.7539062500000459
 40
0.7558593750000454
 40
0.7558593750000454
 40
0.7578125000000451
 40
0.7578125000000451
 40
0.7656250000000436
 40
0.7656250000000436
 40
0.7812500000000407
 40
0.7812500000000407
 40
0.812500000000035
 40
0.812500000000035
 40
0.8750000000000233
 40
0.8750000000000233
 40
0.9375000000000117
 40
0.9375000000000117
 40
1.0
 40
1.0
 40
1.0
 40
1.0
 10
-13.96193742928685
 20
9.92694187825809
 30
0.0
 10
-14.10369808687252
 20
9.886296379547652
 30
0.0
 10
-14.24475067287612
 20
9.843171079365117
 30
0.0
 10
-14.52488921836055
 20
9.751390705002343
 30
0.0
 10
-14.66400942176852
 20
9.702731339925842
 30
0.0
 10
-15.07809363601583
 20
9.547193433851428
 30
0.0
 10
-15.34960498125012
 20
9.430895624542673
 30
0.0
 10
-15.74468810176293
 20
9.231721379964586
 30
0.0
 10
-15.87427773063182
 20
9.161216754621089
 30
0.0
 10
-16.06451120225719
 20
9.048387437478173
 30
0.0
 10
-16.12719971027865
 20
9.009613934908687
 30
0.0
 10
-16.25099834133889
 20
8.929525151149571
 30
0.0
 10
-16.31212677901283
 20
8.888195104418898
 30
0.0
 10
-16.49234028297415
 20
8.760458629191657
 30
0.0
 10
-16.60845773255878
 20
8.67021162388271
 30
0.0
 10
-16.77540482851484
 20
8.525700150440057
 30
0.0
 10
-16.82992003670014
 20
8.47592772503068
 30
0.0
 10
-16.93590450151078
 20
8.37337906040359
 30
0.0
 10
-16.98731461984205
 20
8.320667883880219
 30
0.0
 10
-17.0867250694469
 20
8.212148830746589
 30
0.0
 10
-17.13472564674537
 20
8.1563411775712
 30
0.0
 10
-17.20393872262217
 20
8.070097882885742
 30
0.0
 10
-17.22657703845474
 20
8.040883381202898
 30
0.0
 10
-17.27067584595781
 20
7.981849678907292
 30
0.0
 10
-17.29214251221186
 20
7.952026470241944
 30
0.0
 10
-17.39650588527222
 20
7.801349056609888
 30
0.0
 10
-17.47050244029613
 20
7.675815852235112
 30
0.0
 10
-17.56606375064841
 20
7.479402314252754
 30
0.0
 10
-17.59534334477462
 20
7.412577835764387
 30
0.0
 10
-17.63523330434431
 20
7.310222759983109
 30
0.0
 10
-17.64785824279761
 20
7.275751266641569
 30
0.0
 10
-17.67173485694292
 20
7.20608632646777
 30
0.0
 10
-17.68300498311806
 20
7.170825668675419
 30
0.0
 10
-17.73554823218686
 20
6.993730784849803
 30
0.0
 10
-17.76552125147375
 20
6.849322891483597
 30
0.0
 10
-17.79313931285504
 20
6.6291820466956
 30
0.0
 10
-17.79941713103802
 20
6.555539065098585
 30
0.0
 10
-17.80465098946922
 20
6.444714083370903
 30
0.0
 10
-17.80564842907708
 20
6.407762933020596
 30
0.0
 10
-17.80648100659362
 20
6.333845870170498
 30
0.0
 10
-17.80678304645351
 20
6.296885887694227
 30
0.0
 10
-17.80834816854104
 20
6.112086672875589
 30
0.0
 10
-17.80911796274807
 20
5.964240295046795
 30
0.0
 10
-17.81007307633123
 20
5.668547763230544
 30
0.0
 10
-17.81025540535809
 20
5.520700362273641
 30
0.0
 10
-17.81020676490469
 20
5.225006062246229
 30
0.0
 10
-17.80993547562718
 20
5.077159014357945
 30
0.0
 10
-17.80869727823059
 20
4.337923963967691
 30
0.0
 10
-17.80766598914611
 20
3.746535994219607
 30
0.0
 10
-17.80625438217182
 20
2.859453817281289
 30
0.0
 10
-17.80576792165791
 20
2.563759783348286
 30
0.0
 10
-17.8051221143392
 20
2.194142305770348
 30
0.0
 10
-17.80499138170096
 20
2.120218812960998
 30
0.0
 10
-17.80479503847427
 20
2.009333574218717
 30
0.0
 10
-17.80469675714086
 20
1.953890955041655
 30
0.0
 10
-17.80459848904186
 20
1.898448336549464
 30
0.0
 10
-17.80454940665932
 20
1.870727025173379
 30
0.0
 10
-17.8045698737142
 20
1.861482199049487
 30
0.0
 10
-17.80368689268907
 20
1.843102655382081
 30
0.0
 10
-17.80291149048322
 20
1.833952677833837
 30
0.0
 10
-17.79956924783066
 20
1.806623832376603
 30
0.0
 10
-17.79601921012177
 20
1.788562138059321
 30
0.0
 10
-17.78863365731481
 20
1.761715158440625
 30
0.0
 10
-17.78581759751556
 20
1.752810558046785
 30
0.0
 10
-17.77957928970153
 20
1.7354117451872
 30
0.0
 10
-17.77614646874284
 20
1.726875794034084
 30
0.0
 10
-17.76493151510836
 20
1.70174553377327
 30
0.0
 10
-17.75624534766716
 20
1.685622326912061
 30
0.0
 10
-17.74140042022574
 20
1.662383685072006
 30
0.0
 10
-17.73614777154056
 20
1.654796065734254
 30
0.0
 10
-17.725016436489
 20
1.639947062032549
 30
0.0
 10
-17.71913611937
 20
1.63269359551557
 30
0.0
 10
-17.70085357447758
 20
1.611836840153331
 30
0.0
 10
-17.68770904950325
 20
1.598999254378571
 30
0.0
 10
-17.65953354061855
 20
1.575429057951308
 30
0.0
 10
-17.64443938396903
 20
1.564641597652187
 30
0.0
 10
-17.59664375966702
 20
1.535899225317434
 30
0.0
 10
-17.56260947781173
 20
1.522143990756628
 30
0.0
 10
-17.50813803596555
 20
1.510029698907619
 30
0.0
 10
-17.48975837343797
 20
1.507487815113649
 30
0.0
 10
-17.4622474554376
 20
1.506011156738958
 30
0.0
 10
-17.4530612903218
 20
1.506075888497544
 30
0.0
 10
-17.43469480042033
 20
1.506000247309441
 30
0.0
 10
-17.42551118406485
 20
1.505975469953413
 30
0.0
 10
-17.3795926620372
 20
1.505867044212157
 30
0.0
 10
-17.34285746891923
 20
1.505793490530073
 30
0.0
 10
-17.23265272581855
 20
1.505543461397526
 30
0.0
 10
-17.15918309316071
 20
1.505367151393791
 30
0.0
 10
-16.93877407315692
 20
1.504809711237243
 30
0.0
 10
-16.79183483010562
 20
1.504403060034783
 30
0.0
 10
-16.35101745820404
 20
1.503062348055289
 30
0.0
 10
-16.05713974201859
 20
1.501964267383502
 30
0.0
 10
-15.46938685082915
 20
1.499184528285298
 30
0.0
 10
-15.17551172008619
 20
1.497475612143335
 30
0.0
 10
-14.58776034638595
 20
1.494327656878854
 30
0.0
 10
-14.29388217351271
 20
1.493356908490616
 30
0.0
 10
-13.99999999999999
 20
1.493356908490616
 30
0.0
  0
CIRCLE
  5
4E
330
1F
100
AcDbEntity
  8
0
  6
Continuous
 62
     7
370
    15
100
AcDbCircle
 10
3.3039392948
 20
10.604599602
 30
0.0
 40
0.0847499999999997
  0
CIRCLE
  5
4F
330
1F
100
AcDbEntity
  8
0
  6
Continuous
 62
     7
370
    15
100
AcDbCircle
 10
-17.6425444558
 20
6.195617865
 30
0.0
 40
0.0847499999999952
  0
CIRCLE
  5
50
330
1F
100
AcDbEntity
  8
0
  6
Continuous
 62
     7
370
    15
100
AcDbCircle
 10
3.4322185144
 20
6.195617865
 30
0.0
 40
0.0847499999999988
  0
CIRCLE
  5
51
330
1F
100
AcDbEntity
  8
0
  6
Continuous
 62
     7
370
    15
100
AcDbCircle
 10
-1.8551629707
 20
10.7328788216
 30
0.0
 40
0.0847499999999997
  0
CIRCLE
  5
52
330
1F
100
AcDbEntity
  8
0
  6
Continuous
 62
     7
370
    15
100
AcDbCircle
 10
-7.1051629707
 20
10.6679693389
 30
0.0
 40
0.0847499999999979
  0
CIRCLE
  5
53
330
1F
100
AcDbEntity
  8
0
  6
Continuous
 62
     7
370
    15
100
AcDbCircle
 10
-1.8551629707
 20
1.6583569085
 30
0.0
 40
0.084749999999999
  0
CIRCLE
  5
54
330
1F
100
AcDbEntity
  8
0
  6
Continuous
 62
     7
370
    15
100
AcDbCircle
 10
-7.1051629707
 20
1.6583569085
 30
0.0
 40
0.0847500000000001
  0
CIRCLE
  5
55
330
1F
100
AcDbEntity
  8
0
  6
Continuous
 62
     7
370
    15
100
AcDbCircle
 10
-12.3551629707
 20
1.6583569085
 30
0.0
 40
0.084750000000001
  0
CIRCLE
  5
56
330
1F
100
AcDbEntity
  8
0
  6
Continuous
 62
     7
370
    15
100
AcDbCircle
 10
-17.5779646189
 20
1.7229367454
 30
0.0
 40
0.0847499999999963
  0
CIRCLE
  5
57
330
1F
100
AcDbEntity
  8
0
  6
Continuous
 62
     7
370
    15
100
AcDbCircle
 10
-12.3551629707
 20
10.152538494
 30
0.0
 40
0.0847499999999997
  0
CIRCLE
  5
58
330
1F
100
AcDbEntity
  8
0
  6
Continuous
 62
     7
370
    15
100
AcDbCircle
 10
3.4322185144
 20
1.6583569085
 30
0.0
 40
0.084749999999999
  0
SPLINE
  5
59
330
1F
100
AcDbEntity
  8
0
  6
Continuous
 62
     7
370
    15
100
AcDbSpline
210
0.0
220
0.0
230
1.0
 70
     8
 71
     3
 72
    12
 73
     8
 74
     0
 42
0.00000001
 43
0.00000001
 12
1.0
 22
0.0
 32
0.0
 13
1.0
 23
0.0
 33
0.0
 40
0.0
 40
0.0
 40
0.0
 40
0.0
 40
0.2500000000000002
 40
0.2500000000000002
 40
0.5000000000000003
 40
0.5000000000000003
 40
1.0
 40
1.0
 40
1.0
 40
1.0
 10
-3.895142515068124
 20
10.90057317979369
 30
0.0
 10
-4.401934500150442
 20
10.90037299154692
 30
0.0
 10
-4.908723147430227
 20
10.89548011144285
 30
0.0
 10
-5.922074840355572
 20
10.87545758842878
 30
0.0
 10
-6.428672288768063
 20
10.86035103388779
 30
0.0
 10
-7.947823084885922
 20
10.79962678780189
 30
0.0
 10
-8.9597605873261
 20
10.73863187522481
 30
0.0
 10
-9.970080086390377
 20
10.65733436508945
 30
0.0
  0
SPLINE
  5
5A
330
1F
100
AcDbEntity
  8
0
  6
Continuous
 62
     7
370
    15
100
AcDbSpline
210
0.0
220
0.0
230
1.0
 70
     8
 71
     3
 72
    20
 73
    16
 74
     0
 42
0.00000001
 43
0.00000001
 12
1.0
 22
0.0
 32
0.0
 13
1.0
 23
0.0
 33
0.0
 40
0.0
 40
0.0
 40
0.0
 40
0.0
 40
0.2500000000000002
 40
0.2500000000000002
 40
0.5000000000000004
 40
0.5000000000000004
 40
0.7500000000000007
 40
0.7500000000000007
 40
0.875000000000001
 40
0.875000000000001
 40
0.9375000000000012
 40
0.9375000000000012
 40
0.9687500000000007
 40
0.9687500000000007
 40
1.0
 40
1.0
 40
1.0
 40
1.0
 10
-9.970080086396317
 20
10.65733436516505
 30
0.0
 10
-10.30775939199312
 20
10.63016114504678
 30
0.0
 10
-10.64472062789322
 20
10.59445347006648
 30
0.0
 10
-11.31639607712815
 20
10.50607300143813
 30
0.0
 10
-11.65116673421629
 20
10.45339311341284
 30
0.0
 10
-12.31754639689076
 20
10.33137322089655
 30
0.0
 10
-12.64920585708307
 20
10.26202078304019
 30
0.0
 10
-13.14384036881253
 20
10.14558168165398
 30
0.0
 10
-13.30823360766156
 20
10.10470335228974
 30
0.0
 10
-13.55398875370268
 20
10.04032365665345
 30
0.0
 10
-13.63576921035147
 20
10.01835323968935
 30
0.0
 10
-13.75823341046554
 20
9.984633328980665
 30
0.0
 10
-13.79902042303095
 20
9.973266076586066
 30
0.0
 10
-13.8805255799983
 20
9.950276662441125
 30
0.0
 10
-13.92123245170726
 20
9.93861277582465
 30
0.0
 10
-13.961937429287
 20
9.926941878258043
 30
0.0
  0
LINE
  5
5B
330
1F
100
AcDbEntity
  8
0
  6
Continuous
 62
     7
370
    15
100
AcDbLine
 10
-0.0002856523
 20
10.8978788205
 30
0.0
 11
-1.0000883854
 21
10.898486388
 31
0.0
  0
LINE
  5
5C
330
1F
100
AcDbEntity
  8
0
  6
Continuous
 62
     7
370
    15
100
AcDbLine
 10
2.9888539311
 20
10.89787882
 30
0.0
 11
-0.0002856523
 21
10.8978788205
 31
0.0
  0
LINE
  5
5D
330
1F
100
AcDbEntity
  8
0
  6
Continuous
 62
     7
370
    15
100
AcDbLine
 10
3.5972185144
 20
1.601369081
 30
0.0
 11
3.5972185144
 21
10.2957450001
 31
0.0
  0
LINE
  5
5E
330
1F
100
AcDbEntity
  8
0
  6
Continuous
 62
     7
370
    15
100
AcDbLine
 10
-14.0
 20
1.4933569085
 30
0.0
 11
2.5726622283
 21
1.4933569085
 31
0.0
  0
ENDSEC
  0
SECTION
  2
OBJECTS
  0
DICTIONARY
  5
C
330
0
100
AcDbDictionary
281
     1
  3
ACAD_GROUP
350
D
  3
ACAD_LAYOUT
350
1A
  3
ACAD_MLINESTYLE
350
17
  3
ACAD_PLOTSETTINGS
350
19
  3
ACAD_PLOTSTYLENAME
350
E
  0
DICTIONARY
  5
D
102
{ACAD_REACTORS
330
C
102
}
330
C
100
AcDbDictionary
281
     1
  0
DICTIONARY
  5
1A
102
{ACAD_REACTORS
330
C
102
}
330
C
100
AcDbDictionary
281
     1
  3
Layout1
350
1E
  3
Layout2
350
26
  3
Model
350
22
  0
DICTIONARY
  5
17
102
{ACAD_REACTORS
330
C
102
}
330
C
100
AcDbDictionary
281
     1
  3
Standard
350
18
  0
DICTIONARY
  5
19
102
{ACAD_REACTORS
330
C
102
}
330
C
100
AcDbDictionary
281
     1
  0
ACDBDICTIONARYWDFLT
  5
E
102
{ACAD_REACTORS
330
C
102
}
330
C
100
AcDbDictionary
281
     1
  3
Normal
350
F
100
AcDbDictionaryWithDefault
340
F
  0
LAYOUT
  5
1E
102
{ACAD_REACTORS
330
1A
102
}
330
1A
100
AcDbPlotSettings
  1

  2
none_device
  4

  6

 40
0.0
 41
0.0
 42
0.0
 43
0.0
 44
0.0
 45
0.0
 46
0.0
 47
0.0
 48
0.0
 49
0.0
140
0.0
141
0.0
142
1.0
143
1.0
 70
   688
 72
     0
 73
     0
 74
     5
  7

 75
    16
147
1.0
148
0.0
149
0.0
100
AcDbLayout
  1
Layout1
 70
     1
 71
     1
 10
0.0
 20
0.0
 11
12.0
 21
9.0
 12
0.0
 22
0.0
 32
0.0
 14
1.0000000000E+20
 24
1.0000000000E+20
 34
1.0000000000E+20
 15
-1.0000000000E+20
 25
-1.0000000000E+20
 35
-1.0000000000E+20
146
0.0
 13
0.0
 23
0.0
 33
0.0
 16
1.0
 26
0.0
 36
0.0
 17
0.0
 27
1.0
 37
0.0
 76
     0
330
1B
  0
LAYOUT
  5
26
102
{ACAD_REACTORS
330
1A
102
}
330
1A
100
AcDbPlotSettings
  1

  2
none_device
  4

  6

 40
0.0
 41
0.0
 42
0.0
 43
0.0
 44
0.0
 45
0.0
 46
0.0
 47
0.0
 48
0.0
 49
0.0
140
0.0
141
0.0
142
1.0
143
1.0
 70
   688
 72
     0
 73
     0
 74
     5
  7

 75
    16
147
1.0
148
0.0
149
0.0
100
AcDbLayout
  1
Layout2
 70
     1
 71
     2
 10
0.0
 20
0.0
 11
0.0
 21
0.0
 12
0.0
 22
0.0
 32
0.0
 14
0.0
 24
0.0
 34
0.0
 15
0.0
 25
0.0
 35
0.0
146
0.0
 13
0.0
 23
0.0
 33
0.0
 16
1.0
 26
0.0
 36
0.0
 17
0.0
 27
1.0
 37
0.0
 76
     0
330
23
  0
LAYOUT
  5
22
102
{ACAD_REACTORS
330
1A
102
}
330
1A
100
AcDbPlotSettings
  1

  2
none_device
  4
ANSI_A_(11.00_x_8.50_Inches)
  6

 40
6.35
 41
19.05
 42
6.35000508
 43
19.05000254
 44
279.4
 45
215.9
 46
225.1732792775
 47
8.8362085206
 48
0.0
 49
0.0
140
0.0
141
0.0
142
0.5087014195
143
1.0
 70
  1696
 72
     0
 73
     0
 74
     0
  7

 75
     0
147
0.5913241897
148
0.0
149
0.0
100
AcDbLayout
  1
Model
 70
     1
 71
     0
 10
0.0
 20
0.0
 11
12.0
 21
9.0
 12
0.0
 22
0.0
 32
0.0
 14
-17.8102310851
 24
1.4922277982
 34
0.0
 15
3.5972185144
 25
10.9005731798
 35
0.0
146
0.0
 13
0.0
 23
0.0
 33
0.0
 16
1.0
 26
0.0
 36
0.0
 17
0.0
 27
1.0
 37
0.0
 76
     0
330
1F
331
29
  0
MLINESTYLE
  5
18
102
{ACAD_REACTORS
330
17
102
}
330
17
100
AcDbMlineStyle
  2
Standard
 70
     0
  3

 62
   256
 51
90.0
 52
90.0
 71
     2
 49
0.5
 62
   256
  6
BYLAYER
 49
-0.5
 62
   256
  6
BYLAYER
  0
ACDBPLACEHOLDER
  5
F
102
{ACAD_REACTORS
330
E
102
}
330
E
  0
ENDSEC
  0
EOF
